PrimaNota.ru - самый крупный в мире бесплатный архив песенных текстов, аккордов, табулатур и нот


Black Keys - Goin Down South - таба, видео

Регистрация Запомнить меня
Войти через:  Facebook Google Twitter Vk Yandex Mail.ru

Black Keys - Goin Down South - таба, видео

Печатать
Просмотров: 118
                                  ~~~~~~~~~~~~~~~~~~~~~~~~~~~~~~~~~~~~~~~~
                                               Goin' Down South
                                               The Black Keys
                                                 Rare Ones
                                  ~~~~~~~~~~~~~~~~~~~~~~~~~~~~~~~~~~~~~~~~


Tabbed by: Connor O.
Tuning: Standard



A rare one from the Black Keys. From what I could find this recording was made
during a live show done on 9/1/2005. 

All the recordings I could find have pretty poor sound quality. It's not too 
bad, but it's really hard to tell if he's playing a low E bass-line during 
the slide parts of the solo. I didn't tab it, but it sound like Dan is 
playing a bass-line straight through the slide portions.


Key:
where # represents a fret number

#h# - hammer
#p# - pull
/ \ - slides, up and down respectively.
#b# - bend from normal note up to achieve bended note.
#r# - release bend from bended note to normal note.
=== - under boxes, represents the use of a guitar slide.
#b  - a slight bend a.k.a. a curl.
 x  - mute



Intro:


   0:04

E|---------------------------------------------|
B|---------------------------------------------|
G|---------------------------------------------|
D|-----0----0h2--------------------------------|
A|-0h2----2------------------------------------|
E|----------------0-0--------------------------|


  0:10

E|-----------0-x-----x-----0-x-----------x-----|
B|-------------x-----x-------x-----------x-----|
G|---0-0-------x---0-x-------x---0-0---0-x-----|
D|-----0-2-----x-----x-2-----x-----0-----x-2---|
A|-------------x-----x-------x-----------x-----|
E|-0-------0---x-0---x---0---x-0-----0---x-----|



Bridge:


  0:18

E|-----0-----------------0--------------|
B|-----0-----------------0--------------|
G|-----1---------0-------1--------------|
D|-----2-------0-0-2-----2-------0------|
A|-----2---0h2-----------2---0h2--------|
E|-------0-----------0-----0-------3b---|


  0:22

E|-----0---------------0-0--------------|
B|-----0-----------------0--------------|
G|-----1---------0-------1--------------|
D|-----2-------0-0-2-----2-------0------|
A|-----2---0h2-----------2---0h2--------|
E|-0-----0-----------0-----0-------3b---|


  0:27

E|-----0-----------------0--------------|
B|-----0-----------------0--------------|
G|-----1---------0-------1--------------|
D|-----2-------0-0-2-----2-------0------| X2
A|-----2---0h2-----------2---0h2--------|
E|-0-----0-----------0-----0-------3b---|



Verse 1:


  0:35
  I'm goin' witchu babe 
  I'm goin' witchu baby
  I'm goin' witchu babe
  I'm goin' witchu baby
E|-----0-----0-----0---|
B|-----0-----0-----0---|
G|-----1---0-1-----1---|
D|-----2-----2---2-2---| X4
A|-----2-----2-----2---|
E|-0-----0-0---0-0-----|


  0:43
  I don't care where you go
E|-----0-----0-----0-----0---|
B|-----0-----0-----0-----0---|
G|-----1---0-1---0-1-----1---|
D|-----2-----2-----2---2-2---|
A|-----2-----2-----2-----2---|
E|-0-----0-0---0-0---0-0-----|



Bridge:


  0:47

E|-----------------------0--------------|
B|-----------------------0--------------|
G|---------------0-------1--------------|
D|-------------0-0-2-----2-------0------|
A|---------0h2-----------2---0h2--------|
E|-------0-----------0-----0-------3b---|


  0:51

E|-----0-----------------0--------------|
B|-----0-----------------0--------------|
G|-----1---------0-------1--------------|
D|-----2-------0-0-2-----2-------0------|
A|-----2---0h2-----------2---0h2--------|
E|-0-----0-----------0-----0-------3b---|



Verse 2:


  0:54
  Some other man (X3)
E|-----0-----0-----0---|
B|-----0-----0-----0---|
G|-----1---0-1-----1---|
D|-----2-----2---2-2---| X3
A|-----2-----2-----2---|
E|-0-----0-0---0-0-----|


  1:00
  Always hangin' around
E|-----0-----0-----0-----0---|
B|-----0-----0-----0-----0---|
G|-----1---0-1---0-1-----1---|
D|-----2-----2-----2---2-2---|
A|-----2-----2-----2-----2---|
E|-0-----0-0---0-0---0-0-----|



Bridge:


  1:04

E|-----------------------0--------------|
B|-----------------------0--------------|
G|---------------0-------1--------------|
D|-------------0-0-2-----2-------0------|
A|---------0h2-----------2---0h2--------|
E|-------0-----------0-----0-------3b---|


  1:08

E|-----0-----------------0--------------|
B|-----0-----------------0--------------|
G|-----1---------0-------1--------------|
D|-----2-------0-0-2-----2-------0------|
A|-----2---0h2-----------2---0h2--------|
E|-0-----0-----------0-----0-------3b---|



Solo 1:


  1:12

E|-----0---10/12-12-12---0----------------0---12-10---------0--------------|
B|-----0---10/12-12-12---0----------------0---------12------0--------------|
G|-----1-----------------1----------------1------------12---1--------------|
D|-----2-----------------2-------0--------2-----------------2-------0------|
A|-----2-----------------2---0h2----------2-----------------2---0h2--------|
E|-0-0---0-------------0---0-------3b-0-0---0-------------0---0-------3b---|
           ===========                        ===========

  1:20

E|-----0---------15-12---0----------------0---3-------------0--------------|
B|-----0---12/15---------0----------------0-----5---3/5-----0--------------|
G|-----1-----------------1----------------1-----------------1--------------|
D|-----2-----------------2-------0--------2-----------------2-------0------|
A|-----2-----------------2---0h2----------2-----------------2---0h2--------|
E|-0-0---0-------------0---0-------3b-0-0---0-------------0---0-------3b-0-|
           ===========                        =========


verse 3: (Repeat of Verse 1, basically)


  1:28
  I'm goin' witchu babe 
  I'm goin' witchu baby
  I'm goin' witchu babe
  I'm goin' witchu baby
E|-----0-----0-----0---|
B|-----0-----0-----0---|
G|-----1---0-1-----1---|
D|-----2-----2---2-2---| X4
A|-----2-----2-----2---|
E|-0-----0-0---0-0-----|


  1:36
  I don't care where you go
E|-----0-----0-----0-----0---|
B|-----0-----0-----0-----0---|
G|-----1---0-1---0-1-----1---|
D|-----2-----2-----2---2-2---|
A|-----2-----2-----2-----2---|
E|-0-----0-0---0-0---0-0-----|



Bridge:


  1:40

E|-----0-----------------0--------------|
B|-----0-----------------0--------------|
G|-----1---------0-------1--------------|
D|-----2-------0-0-2-----2-------0------|
A|-----2---0h2-----------2---0h2--------|
E|-0-----0-----------0-----0-------3b-0-|


  1:43

E|-----0-----------------0--------------|
B|-----0-----------------0--------------|
G|-----1---------0-------1--------------|
D|-----2-------0-0-2-----2-------0------|
A|-----2---0h2-----------2---0h2--------|
E|-0-----0-----------0-----0-------3b---|



Solo 2:


  1:47

E|-----0---3-----------0----------------0---3-----------0---3---3-3/5--|
B|-----0-----5---3/5---0----------------0-----5---3/5---0-----5--------|
G|-----1---------------1----------------1---------------1--------------|
D|-----2---------------2-------0--------2---------------2--------------|
A|-----2---------------2---0h2----------2---------------2--------------|
E|-0-0---0-----------0---0-------3b-0-0---0-----------0---0------------|
           =========                        =========

  1:56

E|-----0---5-3-------0-------------0---------------0---------------0------------|
B|-----0-------5-5---0---3---3-3---0---------------0---------------0------------|
G|-----1-------------1-----4-------1---------------1---7-----------1------------|
D|-----2-------------2-------------2---7-5-7-7/9---2-----9-5-5/7---2---7-5------|
A|-----2-------------2-------------2---------------2---------------2-------7-7--|
E|-0-0---0---------0---0---------0---0-----------0---0-----------0---0----------|
           =======                     =========       =========       =======




Really straightforward from here. Just softly playing the main riff and throwing in a quick
verse identical to verse 1. Ending on the low E string.
Добавлено: 22.10.2013
Другие материалы по этой песне:
  • Аккорды и текст

Страница создана 22.10.2013
http://primanota.ru/black-keys/goin-down-south-chords.htm
Привет, Гость.
Предлагаем пройти революционный курс по гитаре.
Подарок от PrimaNota.Ru, забирай!