PrimaNota.ru - самый крупный в мире бесплатный архив песенных текстов, аккордов, табулатур и нот


Black Keys - Just Got To Be - таба, бас-таба, видео

Регистрация Запомнить меня
Войти через:  Facebook Google Twitter Vk Yandex Mail.ru

Black Keys - Just Got To Be - таба, бас-таба, видео

Печатать
Просмотров: 415
Авторы: The Black Keys

-------------------------------------------------------------------------------
                         Just Got To Be by Black Keys
-------------------------------------------------------------------------------

Intro:

e|---------------------------------------------------------------------------|
B|---------------------------------------------------------------------------|
G|------------7-------9----7-------------------------------------------------|
D|--9-9-9-9-9---9---9-9--9-7--------5----------------------------------------|
A|--9-9-9-9-9-------9-7--9-5--5-7-5---7-5------------------------------------|
E|--7-7-7-7-7-------7----7---------------------------------------------------|

e|---------------------------------------------------------------------------|
B|---------------------------------------------------------------------------|
G|----------------7h9p7----9----7--7p5---------------------------------------|
D|--9-9-9-9-9-7-9-------9--9--9-7------7p5-----------------------------------|
A|--9-9-9-9-9--------------7--9-5--------------------------------------------|
E|--7-7-7-7-7-----------------7----------------------------------------------|

e|---------------------------------------------------------------------------|
B|---------------------------------------------------------------------------|
G|------------7-------9----7-------------------------------------------------|
D|--9-9-9-9-9---9---9-9--9-7--------5----------------------------------------|
A|--9-9-9-9-9-------9-7--9-5--5-7-5---7-5------------------------------------|
E|--7-7-7-7-7-------7----7---------------------------------------------------|

e|---------------------------------------------------------------------------|
B|---------------------------------------------------------------------------|
G|------------7-------9----7-------------------------------------------------|
D|--9-9-9-9-9---9---9-9--9-7--------5----------------------------------------|
A|--9-9-9-9-9-------9-7--9-5--5-7-5---7-5------------------------------------|
E|--7-7-7-7-7-------7----7---------------------------------------------------|

Verse:

e|---------------------------------------------------------------------------|
B|---------------------------------------------------------------------------|
G|--------------------9-9-9---7-7-7-9-9-9------------------------------------|
D|-----9-7-9-7--------9-9-9---7-7-7-9-9-9------------------------------------|
A|-------------9--8-7-7-7-7-5-5-5-5-7-7-7------------------------------------|
E|--7------------------------------------------------------------------------|

e|---------------------------------------------------------------------------|
B|---------------------------------------------------------------------------|
G|-----------7------------9-9-9---7-7-7-9-9-9--------------------------------|
D|-----9-7-9---9--7-------9-9-9---7-7-7-9-9-9--------------------------------|
A|------------------9-8-7-7-7-7-5-5-5-5-7-7-7--------------------------------|
E|--7------------------------------------------------------------------------|

e|---------------------------------------------------------------------------|
B|---------------------------------------------------------------------------|
G|--------------------9-9-9---7-7-7-9-9-9------------------------------------|
D|-----9-7-9-7--------9-9-9---7-7-7-9-9-9------------------------------------|
A|-------------9--8-7-7-7-7-5-5-5-5-7-7-7------------------------------------|
E|--7------------------------------------------------------------------------|

e|---------------------------------------------------------------------------|
B|---------------------------------------------------------------------------|
G|--------------------9-9-9---7-7-7-9-9-9------------------------------------|
D|-----9-7-9-7--------9-9-9---7-7-7-9-9-9------------------------------------|
A|-------------9--8-7-7-7-7-5-5-5-5-7-7-7------------------------------------|
E|--7------------------------------------------------------------------------|

Interlude:

e|---------------------------------------------------------------------------|
B|---------------------------------------------------------------------------|
G|------7-----------7--------------------------------------------------------|
D|--9---7-9---7-9---7-9~-----------------------------------------------------|
A|--9---5-9---7-9---5-7~-----------------------------------------------------|
E|--7-----7---5-7-----7~-----------------------------------------------------|

Refrain:

e|---------------------------------------------------------------------------|
B|---------------------------------------------------------------------------|
G|------------7-------9----7-------------------------------------------------|
D|--9-9-9-9-9---9---9-9--9-7--------5----------------------------------------|
A|--9-9-9-9-9-------9-7--9-5--5-7-5---7-5------------------------------------|
E|--7-7-7-7-7-------7----7---------------------------------------------------|

e|---------------------------------------------------------------------------|
B|---------------------------------------------------------------------------|
G|------------7-------9----7-------------------------------------------------|
D|--9-9-9-9-9---9---9-9--9-7--------5----------------------------------------|
A|--9-9-9-9-9-------9-7--9-5--5-7-5---7-5------------------------------------|
E|--7-7-7-7-7-------7----7---------------------------------------------------|

e|---------------------------------------------------------------------------|
B|---------------------------------------------------------------------------|
G|------------7---7h9p7----9----7--------------------------------------------|
D|--9-9-9-9-9---9-------9--9--9-7--------5-----------------------------------|
A|--9-9-9-9-9--------------7--9-5--5-7-5---7-5-------------------------------|
E|--7-7-7-7-7-----------------7----------------------------------------------|

e|---------------------------------------------------------------------------|
B|---------------------------------------------------------------------------|
G|------------7-------9----7-------------------------------------------------|
D|--9-9-9-9-9---9---9-9--9-7--------5----------------------------------------|
A|--9-9-9-9-9-------9-7--9-5--5-7-5---7-5------------------------------------|
E|--7-7-7-7-7-------7----7---------------------------------------------------|

Verse again

Intro again

Bridge:

e|---------------------------------------------------------------------------|
B|-------------------------------------------------------------------7-7-----|
G|--------------------------------------------7-9-7--------7-7--9-9----------|
D|-------------------7-9-7-------------7-7--9---------9-9--------------------|
A|-------5-5--7-7--9---------7-7--9-9----------------------------------------|
E|--7-7----------------------------------------------------------------------|

e|-----7---------------------------------------------------------------------|
B|--10-----7-7--7-10--7-10--7-10--10-7---------------------------------------|
G|---------------------------------------------------------------------------|
D|---------------------------------------------------------------------------|
A|---------------------------------------------------------------------------|
E|---------------------------------------------------------------------------|

Verse: 

e|---------------------------------------------------------------------------|
B|---------------------------------------------------------------------------|
G|--------------------9-9-9---7-7-7-9-9-9------------------------------------|
D|-----9-7-9-7--------9-9-9---7-7-7-9-9-9------------------------------------|
A|-------------9--8-7-7-7-7-5-5-5-5-7-7-7------------------------------------|
E|--7------------------------------------------------------------------------|

e|---------------------------------------------------------------------------|
B|---------------------------------------------------------------------------|
G|-----------7------------9-9-9---7-7-7-9-9-9--------------------------------|
D|-----9-7-9---9--7-------9-9-9---7-7-7-9-9-9--------------------------------|
A|------------------9-8-7-7-7-7-5-5-5-5-7-7-7--------------------------------|
E|--7------------------------------------------------------------------------|

e|---------------------------------------------------------------------------|
B|---------------------------------------------------------------------------|
G|----------------------9-9-9---7-7-7-9-9-9----------------------------------|
D|-----9-9-7------------9-9-9---7-7-7-9-9-9----------------------------------|
A|-----------9--8-7~--9-7-7-7-5-5-5-5-7-7-7----------------------------------|
E|--7------------------------------------------------------------------------|

e|---------------------------------------------------------------------------|
B|---------------------------------------------------------------------------|
G|-----------7------------9-9-9---7-7-7-9-9-9--------------------------------|
D|-----9-7-9---9--7-------9-9-9---7-7-7-9-9-9-9---9-9-9----------------------|
A|------------------9-8-7-7-7-7-5-5-5-5-7-7-7-9---9-9-9----------------------|
E|--7-----------------------------------------7---7-7-7----------------------|


| /  slide up
| \  slide down
| h  hammer-on
| p  pull-off
| ~  vibrato
| +  harmonic
| x  Mute note
===============================================================================
Добавлено: 28.05.2012
Другие материалы по этой песне:

Страница создана 25.02.2012
http://primanota.ru/black-keys/just-got-to-be-chords.htm
Привет, Гость.
Предлагаем пройти революционный курс по гитаре.
Подарок от PrimaNota.Ru, забирай!