PrimaNota.ru - самый крупный в мире бесплатный архив песенных текстов, аккордов, табулатур и нот


Black Keys - Gotta Get Away - аккорды и текст, таба, бас-таба, видео

Регистрация Запомнить меня
Войти через:  Facebook Google Twitter Vk Yandex Mail.ru

Black Keys - Gotta Get Away - аккорды и текст, таба, бас-таба, видео

Печатать
Просмотров: 374
Авторы: Patrick Carney, Dan Auerbach

Gotta Get Away
Black Keys
-------------------------------------------------------------------------------
                              Black keys - Gotta Get Away
-------------------------------------------------------------------------------
Album : Turn Blue (2014)
Tempo : 126
E-mail: gwendal.mollo@orange.fr
Tabbed by: newg

Capo II 

Intro (play 4 times)
   D                             A                         G                          D
e|----------------------------|--------------------------|--------------------------|-----------3h-2--------|
B|----------------------------|--------------------------|--------------------------|--3--------------3-----|
G|--2-----2--4-----2--2--x----|-----------------------x--|--------------------------|--2-----------------2--|
D|--0-----0--0-----0--4--x----|--2-----2--4-----2--2--x--|------0-----0h-2----0-----|--0--------------------|
A|----------------------------|--0-----0--0-----0--4--x--|-5---------------------2--|-----------------------|
E|----------------------------|--------------------------|-3------------------------|-----------------------|


G                                       D
 I got paid then I was on the road in a heartbeat, Mama said, mama said,
           G                                               A
"You got a one track mind, But you ain't gonna get all the time."
She wasn't lyin'


Chorus:
            D             A
I went from San Berdoo to Kalamazoo
G                     D
Just to get away from you
           D                    A
I searched far and wide, hopin' I was wrong
         G                      D
But baby all the good women are gone


G                           D
My last dime got used up on gasoline,
What I mean, what I mean
G
Atlanta, GA, By the end of the day
          A
I'm well away, that's what I say

Chorus

Bm                   D
    And everything I had to say
                  Bm
Wish we'd gone so far away
     A
Well now I can't stay

Solo (Chorus Without lyrics)


G                          D
Blacktop, I can't stop for no one,
It's no fun, no fun
       G
With a one track mind
                            A
If you don't get lucky some time
But still I'm tryin'

Chorus x2
D
Добавлено: 26.05.2014
Другие материалы по этой песне:

Страница создана 08.05.2014
http://primanota.ru/black-keys/gotta-get-away-chords.htm
Привет, Гость.
Предлагаем пройти революционный курс по гитаре.
Подарок от PrimaNota.Ru, забирай!