PrimaNota.ru - самый крупный в мире бесплатный архив песенных текстов, аккордов, табулатур и нот


Black Keys - Do The Rump - текст песни, таба, видео

Регистрация Запомнить меня
Войти через:  Facebook Google Twitter Vk Yandex Mail.ru

Black Keys - Do The Rump - текст песни, таба, видео

Печатать
Просмотров: 201
-------------------------------------------------------------------------------
                             Do The Rump - The Black Keys
-------------------------------------------------------------------------------
Tabbed by: Tom Ryan     
E-mail: Tom.Ryan.313@gmail.com

Tuning: Standard

e|---------------------------------------------------------------------------|
B|---------------3-----------5b6(6)------------3-------------3---------------|
G|---------------------------------------------------------------------------|
D|-----------3h4-------------5-------------3h4-----------3h4-----------------|
A|-5-5-3-5-5-------5-5-3-5-5-----5-5-3-5-5-------5-5-3-5---------------------|
E|---------------------------------------------------------------------------|

e|------------------x---x-x-x----3-------------------------------------------|
B|------------------x---x-x-x--6---6--(6)-------------------3----------------|
G|---5-5p4-2/4-(4)--x---x-x-x------------------------------------------------|
D|------------------x---x-x-x-------------3b4-----------3h4------------------|
A|-0----------------x---x-x-x-----------------5-5-3-5-5----------------------|
E|------------------x---x-x-x------------------------------------------------|

e|--------------------3-5-3---3--3-5-3---------3-----------------------------|
B|----------------------------------------6--6---6---------------------------|
G|---------5-4-2---2---------------------------------------------------------|
D|-----------------2----------------------------------x-x-5b6br5p3-----------|
A|-5-5-3-5-------0----------0-------------------------x-x--------------------|
E|-------------------------------------3------------3-x-x--------------------|

e|---------------------------------------------------------------------------|
B|---------------3-----------------------------------------------------------|
G|------------------------------5-7------------------------------------------|
D|-----------3h4------------5/7-------------5b6-3----------------------------|
A|-5-5-3-5-5-------5-5-3-5----------5-5-3-5-------5--------------------------|
E|---------------------------------------------------------------------------|

e|---------------------------------------------------------------------------|
B|-----------------------------------------8b9br8p6------------8b9br8p6------|
G|-------------5-7-5--------------------------------7-(7)---------------7----|
D|---------5/7-------7-5-3-5/7-3---------------------------------------------|
A|-5-5-3-5-----------------------5-5-5-3-5-------------5-5-3-5---------------|
E|---------------------------------------------------------------------------|

e|---------------------------------------------------------------------------|
B|----------8b9-6-8-8b9br8p6-----------------------5b6---------------3-------|
G|-(7)-----------------------7p5---------------------------------------------| 0:58
D|-------------------------------7/5p3-------------5-------------3h4---------|
A|--5-5-3-5----------------------------5-5-5-3-5-5-----5-5-3-5-5-------------|
E|---------------------------------------------------------------------------|

e|---------------------------------------------------------------x---x-x-x---|
B|------------5b6---------------3-------------3------------------x---x-x-x---|
G|------------------------------------------------5-5p4-2/4-(4)--x---x-x-x---|
D|------------5-------------3h4-----------3h4--------------------x---x-x-x---|
A|--5-5-3-5-5-----5-5-3-5-5-------5-5-3-5-------0----------------x---x-x-x---|
E|---------------------------------------------------------------x---x-x-x---|

e|---3----------------------------------------------3-5-3---3--3-5-3---------|
B|-6---6--(6)-------------------3--------------------------------------------|
G|----------------------------------------5-4-2---2--------------------------|
D|------------3b4-----------3h4-------------------2--------------------------|
A|----------------5-5-3-5-5-------5-5-3-5-------0---------0------------------|
E|---------------------------------------------------------------------------|

e|--------3------------------------------------------------------------------|
B|---6--6---6-------------------------------3--------------------------------|
G|--------------------------------------------------------5-7----------------|
D|---------------x-x-5b6br5p3-----------3h4-----------5/7-----5-3-5-3-5/7-3--|
A|---------------x-x----------5-5-3-5-5-------5-5-3-5-----------------------5|
E|-3-----------3-x-x---------------------------------------------------------|

e|---------------------------------------------------------------------------|
B|---------------------------------3-----------5b6---------------3-----------|
G|-------5-7-5---------------------------------------------------------------| 1:42
D|---5/7-------5-3-------------3h4-------------5-------------3h4-------------|
A|-5---------------5-5-5-3-5-5-------5-5-3-5-5-----5-5-3-5-5-----------------|
E|---------------------------------------------------------------------------|

e|---------------------------------------------------------------------------|
B|-----------5b6---------------3-------------3-------------------------------|
G|---------------------------------------------------------------------------|
D|-----------5-------------3h4-----------3h4---------------------------------|
A|-5-5-3-5-5-----5-5-3-5-5-------5-5-3-5-------------------------------------|
E|---------------------------------------------------------------------------|

e|------------------x---x-x-x----3-------------------------------------------|
B|------------------x---x-x-x--6---6--(6)-------------------3----------------|
G|---5-5p4-2/4-(4)--x---x-x-x------------------------------------------------|
D|------------------x---x-x-x-------------3b4-----------3h4------------------|
A|-0----------------x---x-x-x-----------------5-5-3-5-5----------------------|
E|------------------x---x-x-x------------------------------------------------|

e|--------------------3-5-3---3--3-5-3---------3-----------------------------|
B|-------------3---------------------------6--6---6--------------------------|
G|-----------------2---------------------------------------------------------|
D|---------3h4-----2---------------------------------------------------------|
A|-5-5-3-5-------0----------0----------------------------5-(5)---------------|
E|-------------------------------------3------------3------------------------|



************************************

| /   slide up
| \   slide down
| h   hammer-on
| p   pull-off
| ~   vibrato
| +   harmonic
| x   Mute note
| b   Bend
| pb  Pre-bend
| br  Bend release
| pbr Pre-bend release
| brb Bend release bend

************************************
Добавлено: 03.05.2015
Другие материалы по этой песне:
  • Аккорды и текст

Страница создана 15.03.2012
http://primanota.ru/black-keys/do-the-rump-chords.htm
Привет, Гость.
Предлагаем пройти революционный курс по гитаре.
Подарок от PrimaNota.Ru, забирай!