PrimaNota.ru - самый крупный в мире бесплатный архив песенных текстов, аккордов, табулатур и нот


Black Keys - No Fun - таба, видео

Регистрация Запомнить меня
Войти через:  Facebook Google Twitter Vk Yandex Mail.ru

Black Keys - No Fun - таба, видео

Печатать
Просмотров: 201
Авторы: Iggy Pop
Авторы музыки: Dave Alexander, James Newell June Osterberg, Scott Asheton, Ron Asheton

Title: No Fun
Artist: The Black Keys
Album: The Moan
Words: Stooge/Asheton/alexander/Asheton/
Music: Stooge/Asheton/alexander/Asheton/ Black keys
Tabber: gwendal.mollo@orange.fr
Tempo = 120

Guitar

Verse :
     w                                                                         
E |-------|-----------5--------x-------|--0--0-----0--------x-------|----|----|
B |--4~---|--5--5-----5--------x-------|--0--0--0--0--------x-------|----|----|
G |-------|--6--6--5--6--------x-------|--1--1--0--1--------x-------|----|----|
D |-------|--7--7--5--7--------x-------|--2--2--0--2--------x-------|----|----|
A |-------|--7--7--5--7--------x-------|--2--2--0--2--------x-------|----|----|
E |-------|--5--5--5-------------------|--0--0-----0----------------|----|----|

                                                                    

Chorus :
                                                          
--0--0--0--0--0--0--0--0----|--0--0--0--0--0--0--0--0----|
--2--2--2--2--2--2--2--2----|--2--2--2--2--2--2--2--2----|
--2--2--2--2--2--2--2--2----|--2--2--2--2--2--2--2--2----|
--2--2--2--2--2--2--2--2----|--2--2--2--2--2--2--2--2----|
--0--0--0--0--0--0--0--0----|--0--0--0--0--0--0--0--0----|
----------------------------|----------------------------|

                                                          
--0--0--0--0--0--0--0--0----|--0--0--0--0--0--0--0--0----|
--0--0--0--0--0--0--0--0----|--2--2--2--2--2--2--2--2----|
--1--1--1--1--1--1--1--1----|--2--2--2--2--2--2--2--2----|
--2--2--2--2--2--2--2--2----|--2--2--2--2--2--2--2--2----|
--2--2--2--2--2--2--2--2----|--0--0--0--0--0--0--0--0----|
--0--0--0--0--0--0--0--0----|----------------------------|

                                                          
--0--0--0--0--0--0--0--0----|--0--0--0--0--0--0--0--0----|
--2--2--2--2--2--2--2--2----|--2--2--2--2--2--2--2--2----|
--2--2--2--2--2--2--2--2----|--2--2--2--2--2--2--2--2----|
--2--2--2--2--2--2--2--2----|--2--2--2--2--2--2--2--2----|
--0--0--0--0--0--0--0--0----|--0--0--0--0--0--0--0--0----|
----------------------------|----------------------------|

                                                           
--7--7--7--7--7--7--7--7----|--7-------------------------||
--9--9--9--9--9--9--9--9----|--9-------------------------||
--9--9--9--9--9--9--9--9----|--9-------------------------||
--9--9--9--9--9--9--9--9----|--9-------------------------||
--7--7--7--7--7--7--7--7----|--7-------------------------||
----------------------------|----------------------------||



verse:                                                                                
--------------------------------------5-----------------------------------------
--5-----------5-----------------------5-----------4s-5-----------5b----------3--
--6-----------6-----------5-----------6-----------------------------------------
--7-----------7-----------5-----------7-----------------------------------------
--7-----------7-----------5-----------7-----------------------------------------
--5-----------5-----------5-----------------------------------------------------

                                                     
-----------------------|-----------5-----x--x--x----|
-----------------------|--5--5-----5-----x--x--x----|
---------4-------------|--6--6--5--6-----x--x--x----|
-----------------------|--7--7--5--7-----x--x--x----|
-----------------------|--7--7--5--7-----x--x--x----|
-----------------------|--5--5--5-------------------|

                                                     
--------------------5-----2h-0----------------------|
--5-----5-----------5-----------2h-0----------------|
--6-----6-----5-----6-----------------2-----x-------|
--7-----7-----5-----7-------------------------------|
--7-----7-----5-----7-------------------------------|
--5-----5-----5-------------------------------------|

                             
Bridge :

                                                          
----------------------------|----------------------------|
----------------------------|----------------------------|
--4.-4.-6.-6.-4.-4.-6.-6.---|--4.-4.-6.-6.-4.-4.-6.-6.---|
--2.-2.-2.-2.-2.-2.-2.-2.---|--2.-2.-2.-2.-2.-2.-2.-2.---|
----------------------------|----------------------------|
----------------------------|----------------------------|
                                                            Break 
                                                            ^       ^     
----------------------------|----------------------------|--3----|--2----|
----------------------------|----------------------------|--2----|--1----|
--4.-4.-6.-6.-4.-4.-6.-6.---|--4.-4.-6.-6.-4.-4.-6.-6.---|--2----|--2----|
--2.-2.-2.-2.-2.-2.-2.-2.---|--2.-2.-2.-2.-2.-2.-2.-2.---|--2----|--0----|
----------------------------|----------------------------|--0----|-------|
----------------------------|----------------------------|-------|-------|

  ^       ^       ^       ^       ^  ^       ^     ^     ^              
--3----|--2----|--3----|--2----|--3--2----|--3-----2-----3-----x--x----|
--2----|--1----|--2----|--1----|--2--1----|--2-----1-----2-----x--x----|
--2----|--2----|--2----|--2----|--2--2----|--2-----2-----2-----x--x----|
--2----|--0----|--2----|--0----|--2--0----|--2-----0-----2-----x--x----|
--0----|-------|--0----|-------|--0-------|--0-----------0-----x--x----|
-------|-------|-------|-------|----------|----------------------------|

                                                          
                          ^     ^          ^     ^        
-------|-------|-------|--5-----5-------|--5-----5-------|
-------|-------|-------|--5-----5-------|--5-----5-------|
-------|-------|-------|--6-----6-------|--6-----6-------|
-------|-------|-------|--7-----7-------|--7-----7-------|
-------|-------|-------|--7-----7-------|--7-----7-------|
-------|-------|-------|--5-----5-------|--5-----5-------|

  ^                 ^
--5-----------------5-------||
--5-----------------5-------||
--6-----------------6-------||
--7-----------------7-------||
--7-----------------7-------||
--5-----------------5-------||

Добавлено: 10.07.2013
Другие материалы по этой песне:

Страница создана 10.07.2013
http://primanota.ru/black-keys/no-fun-chords.htm
Привет, Гость.
Предлагаем пройти революционный курс по гитаре.
Подарок от PrimaNota.Ru, забирай!