PrimaNota.ru - самый крупный в мире бесплатный архив песенных текстов, аккордов, табулатур и нот


Black Keys - Evil - таба, видео

Регистрация Запомнить меня
Войти через:  Facebook Google Twitter Vk Yandex Mail.ru

Black Keys - Evil - таба, видео

Печатать
Просмотров: 291
                                  ~~~~~~~~~~~~~~~~~~~~~~~~~~~~~~~~~~~~~~~~
                                                   Evil
                                               The Black Keys
                                              Set You Free - EP
                                  ~~~~~~~~~~~~~~~~~~~~~~~~~~~~~~~~~~~~~~~~


Tabbed by: Connor O.
Tuning: Standard
Capo: 1st fret (F Bb Eb Ab C F) 
Effects: Distortion and a little bit of reverb.



GET INTO STANDARD TUNING, PUT THE CAPO ON, AND USE A TUNER TO FINE TUNE TO 
EXACTLY THIS. DON'T JUST SLAP ON THE CAPO, YOU NEED TO FINE TUNE.

Say what you will, but this song would be impossible to properly play without
a capo. There are F bass-lines played on the low string at several points 
throughout the song. I'm relatively certain Dan Auerbach is no stranger to 
using a capo. I've seen live footage of him using one for several songs, 
including Girl Is On My Mind. I also know he uses a capo for Stack Shot Billy
and Going Home.

Comment with ideas/corrections. Please rate my tab.



Key:
where # represents a fret number

#h# - hammer
#p# - pull
/ \ - slides, up and down respectively.
#b# - bend from normal note up to achieve bended note.
#r# - release bend from bended note to normal note.
=== - under boxes, represents the use of a guitar slide.
#b  - a slight bend a.k.a. a curl.
 x  - mute



Intro:


   0:00

F |---0----0-3-0-----------------|
C |-----3b-------3p0-------------|
Ab|-1----------------2p0---------|
Eb|-2--------------------2-------|
Bb|-2----------------------------|
F |------------------------0-----|



Bridge:


   0:06
                             
F |------------------------------|
C |------------------------------|
Ab|-1-1-1------------------------|
Eb|-1-1-1-4-4-4-5-x--------------| 
Bb|-2-2-2-4-4-4-5-x-2h4p2--------|
F |-----------------------3b-----|
    u d d d u d d

   

F |-0----------------------------|
C |-0----------------------------|
Ab|-1-1-1------------------------|
Eb|-1-1-1-4-4-4-5-x--------------| X2
Bb|-2-2-2-4-4-4-5-x-2h4p2--------|
F |-----------------------3b-----|
    u d d d u d d

   0:14

F |-0-----------------0---0------|
C |-0-----------------0---0------|
Ab|-1-1-1------------------------|
Eb|-1-1-1-4-4-4-5----------------| 
Bb|-2-2-2-4-4-4-5----------------|
F |---------------0-3---3--------|



verse 1:


   0:16
    Darlin' you said you loved me
F |------------------0-0-0-------|
C |------------------0-0-0-------|
Ab|-1-1--------------1-1-1-------|
Eb|-1-1-4-4-5-x------2-2-2-------| 
Bb|-2-2-4-4-5-x-2h4--2-2-2-------|
F |------------------------------|
                     u d u

   0:19
   Place no one above me
F |------------------0-0-0-------|
C |------------------0-0-0-------|
Ab|-1-1--------------1-1-1-------|
Eb|-1-1-4-4-5-x------2-2-2-------| 
Bb|-2-2-4-4-5-x-2h4--2-2-2-------|
F |------------------------------|


   0:21
   That was yesterday    was so far away
F |-----------------0------------|
C |-----------------0------------|
Ab|-1-1--------------------------|
Eb|-1-1-4-4-5-5------------2-0---| 
Bb|-2-2-4-4-5-5-2h4---0--------2-|
F |------------------------------|



Chorus:


   0:26 
   Yeah you evil              Evil as you can be
F |-3------x-x---------3------3-3-------0-0-0----0-3-0----------------------------------------|
C |-2------x-x---------2------2-2-------0-0---3b-------3p0-----------------3---------3--------|
Ab|-2------x-x-2b4r2---2------2-2-------1-1----------------2p0-------2/4---------2/4---4\2-0--|
Eb|-2------x-x---------2------2-2-------2-2--------------------2------------------------------| 
Bb|-0------------------0------0-0-------2-2---------------------------------------------------|
F |-----3b-----------3-----3b-------3----------------------------0---0---0---0---0---0---0----|
  

   0:37
   One thing for sure, Devil better lock his door
F |-2-------5----3---------------|
C |-4-------4----2---------------|
Ab|-4-------4----2------2b4r2----|
Eb|-4-------4----2---------------| 
Bb|-2----------------------------|
F |-2---------3b-----------------|



Bridge:


   0:43

F |------------------------------|
C |------------------------------|
Ab|-1-1--------------------------|
Eb|-1-1-4-4-4-5-x----------------| 
Bb|-2-2-4-4-4-5-x-2h4p2----------|
F |---------------------3b-------|


   0:45

F |-------------------0----------|
C |-0-----------------0----------|
Ab|-1-1-1------------------------|
Eb|-1-1-1-4-4-5-5----------------| 
Bb|-2-2-2-4-4-5-5-2h4---0--------|
F |------------------------------|



Verse 2:


   0:48
   Yeah darlin' you know it's true
F |------------------0-0-0-------|
C |------------------0-0-0-------|
Ab|-1-1--------------1-1-1-------|
Eb|-1-1-4-4-5-x------2-2-2-------| 
Bb|-2-2-4-4-5-x-2h4--2-2-2-------|
F |------------------------------|
                     u d u

   0:51
   He's got a hold of you
F |------------------------------|
C |------------------------------|
Ab|-1-1------------pb2p0---------|
Eb|-1-1-4-4-5------------2-------| 
Bb|-2-2-4-4-5--------------------|
F |------------------------------|


   0:53
   Ain't you so naive      Hands on his sleeves
F |-----------------0------------|
C |-----------------0------------|
Ab|-1-1--------------------------|
Eb|-1-1-4-4-5-5------------2-0---| 
Bb|-2-2-4-4-5-5-2h4---0--------2-|
F |------------------------------|



Chorus:


   0:59
   Yeah you evil               Evil as you can be
F |-3------x-x---------3------3-3---------------------0---------------0---0-3-0---------------|
C |-2------x-x---------2------2-2---------------------3-----------------3-------3p0-----------|
Ab|-2------x-x-2b4r2---2------2-2-pb2p0---------2/4---4-----2\4p0-------------------2p0-------|
Eb|-2------x-x---------2------2-2---------------------------------2---------------------0-----| 
Bb|-0------------------0------0-0-------------------------------------------------------------|
F |-----3b-----------3-----3b-----------0---0---0-----0---0---0-----0-------------------------|
 

   1:09
   One thing for sure, Devil better lock his door
F |-2-------5----3---------------|
C |-4-------4----2---------------|
Ab|-4-------4----2------2b4r2----|
Eb|-4-------4----2---------------| 
Bb|-2----------------------------|
F |-2---------3b-----------------|



Bridge:


   1:15

F |-----------------0-0-0--------|
C |-----------------0-0-0--------|
Ab|-1-1-------------1-1-1--------|
Eb|-1-1-4-4-4-5-5---2-2-2--------| 
Bb|-2-2-4-4-4-5-5-4-2-2-2--------|
F |------------------------------|


   1:18

F |-----------------0-0----------|
C |-----------------0-0----------|
Ab|-1-1-------------1-1----------|
Eb|-1-1-4-4-4-5-5---2-2----------| 
Bb|-2-2-4-4-4-5-5-4-2-2----------|
F |------------------------------|



Solo:


   1:19

F |-12v-----10---12-----------0---|
C |-12v-----10---12-----------0---|
Ab|---------------------------1---|
Eb|---------------------------2---|  X2
Bb|---------------------------2---|
F |-0---0---0---0---0---0---3---0-|
    ===     ==   ==

   1:25
    ===     ==   ==         === = =   =   =   =   ===
F |-12v-----10---12------------------------------------------------|
C |-12v-----10---12---------6/8---8-------8------------------------|
Ab|-----------------------------9-----9-------9---7/9---------1----|
Eb|-----------------------------------------------7/9---------2----| 
Bb|-----------------------------------------------------------2----|
F |-0---0---0---0---0---0---0---0---0---0---0---0---0---0---3---0--|
    
 
   1:30

F |----------------------0-0-0---|
C |----------------------0-0-0---|
Ab|-1-1----2b4-pb2---0h2-1-1-1---|
Eb|-1-1-4----------------2-2-2---| 
Bb|-2-2-4----------------2-2-2---|
F |------------------------------|


   1:32

F |-------------------------0-0--|
C |---------------3---------0-0--|
Ab|-1-1-------2/4---4\2p0---1-1--|
Eb|-1-1-4-4-4---------------2-2--| 
Bb|-2-2-4-4-4---------------2-2--|
F |------------------------------|


   1:35

F |-------------3/5-5---0--------|
C |-----------------5---0--------|
Ab|-1-1-----------------1--------|
Eb|-1-1-4-4-4-5---------2--------| 
Bb|-2-2-4-4-4-5---------2--------|
F |------------------------------|
                =====

   1:37

F |-----------------0------------|
C |-----------------0------------|
Ab|-1-1--------------------------|
Eb|-1-1-4-4-4-5-5----------------| 
Bb|-2-2-4-4-4-5-5----------------|
F |---------------3---3----------|



Verse 3:


   1:40
   I could wrestle with the gods
F |------------------0-0-0-------|
C |------------------0-0-0-------|
Ab|-1-1--------------1-1-1-------|
Eb|-1-1-4-4-5-x------2-2-2-------| 
Bb|-2-2-4-4-5-x-2h4--2-2-2-------|
F |------------------------------|
                     u d u

   1:42
   What'd be my odds
F |------------------0-0-0-------|
C |------------------0-0-0-------|
Ab|-1-1--------------1-1-1-------|
Eb|-1-1-4-4-5-x------2-2-2-------| 
Bb|-2-2-4-4-5-x-2h4--2-2-2-------|
F |------------------------------|


   1:45
   Crapshoot everytime    but your skin is thicker than mine
F |-----------------0------------|
C |-----------------0------------|
Ab|-1-1--------------------------|
Eb|-1-1-4-4-5-5------------2-0---| 
Bb|-2-2-4-4-5-5-2h4---0--------2-|
F |------------------------------|



Chorus:


   1:50
   Yeah you evil                 Evil as you can be
F |-3------x-x---------3------3-3---------------0----0-3-0---------------------------------------|
C |-2------x-x---------2------2-2-----------------3b-------3p0-----------------3---------3-------|
Ab|-2------x-x-2b4r2---2------2-2-pb2p0------------------------2p0-------2/4---------2/4---4\2p0-|
Eb|-2------x-x---------2------2-2----------------------------------2-----------------------------| 
Bb|-0------------------0------0-0----------------------------------------------------------------|
F |-----3b-----------3-----3b-----------0----------------------------0---0---0---0---0---0-------|
 

   2:00
   One thing for sure, Devil better lock his door
F |-2-------5----3---------------|
C |-4-------4----2---------------|
Ab|-4-------4----2------2b4r2----|
Eb|-4-------4----2---------------| 
Bb|-2----------------------------|
F |-2---------3b-----------------|



Bridge:


   2:05

F |-----------------0-0-0--------|
C |-----------------0-0-0--------|
Ab|-1-1-------------1-1-1--------|
Eb|-1-1-4-4-4-5-5---2-2-2--------| 
Bb|-2-2-4-4-4-5-5-4-2-2-2--------|
F |------------------------------|


   2:08

F |------------------------------|
C |------------------------------|
Ab|-1-1--------------------------|
Eb|-1-1-4-4-4-5-x----------------| 
Bb|-2-2-4-4-4-5-x-2h4p2----------|
F |---------------------3b-------|


   2:11

F |-----------------0-0-0--------|
C |-----------------0-0-0--------|
Ab|-1-1-------------1-1-1--------|
Eb|-1-1-4-4-4-5-5---2-2-2--------| 
Bb|-2-2-4-4-4-5-5-4-2-2-2--------|
F |------------------------------|
                

   2:13

F |------------------------------|
C |------------------------------|
Ab|-1-1--------------------------|
Eb|-1-1-4-4-4-5-5----------------| 
Bb|-2-2-4-4-4-5-5-4--------------|
F |------------------------------|



Outro:


   2:16

F |---3b-0------------------------0-0---0--0-----------|
C |--------3bp0-----3-----------0-2-0---0--3-----------|
Ab|-1-----------2/4---4\2-0-------------1--1-----------|
Eb|-2-----------------------2-----------0--0-----------| 
Bb|-2-----------------------------------2--2-----------|
F |-----------------------------0-0-0------------------|
Добавлено: 08.11.2013
Другие материалы по этой песне:
  • Аккорды и текст

Страница создана 08.11.2013
http://primanota.ru/black-keys/evil-chords.htm
Привет, Гость.
Предлагаем пройти революционный курс по гитаре.
Подарок от PrimaNota.Ru, забирай!