PrimaNota.ru - самый крупный в мире бесплатный архив песенных текстов, аккордов, табулатур и нот


Biffy Clyro - Twenty-seven - бас-таба, видео

Регистрация Запомнить меня
Войти через:  Facebook Google Twitter Vk Yandex Mail.ru

Biffy Clyro - Twenty-seven - бас-таба, видео

Печатать
Просмотров: 155
Verse 5x
|-----------------5-5-5-5-55-3-3-3-3--|
|--5-5-5-55555-55---------------------|
|-------------------------------------|
|-------------------------------------|

Chorus 2x
|----------------------------------------------------------------|
|--3-3-3-3-3-3-3-3-4-4-4-4-4-4-4-4-5-5-5-55555-55-5-5-5-55555-55-|
|----------------------------------------------------------------|
|----------------------------------------------------------------|

Verse 6x
|-----------------5-5-5-5-55-3-3-3-3--|
|--5-5-5-55555-55---------------------|
|-------------------------------------|
|-------------------------------------|

Chorus 2x
|----------------------------------------------------------------|
|--3-3-3-3-3-3-3-3-4-4-4-4-4-4-4-4-5-5-5-55555-55-5-5-5-55555-55-|
|----------------------------------------------------------------|
|----------------------------------------------------------------|

Verse 7x
|-----------------5-5-5-5-55-3-3-3-3--|
|--5-5-5-55555-55---------------------|
|-------------------------------------|
|-------------------------------------|

Chorus 2x
|----------------------------------------------------------------|
|--3-3-3-3-3-3-3-3-4-4-4-4-4-4-4-4-5-5-5-55555-55-5-5-5-55555-55-|
|----------------------------------------------------------------|
|----------------------------------------------------------------|

Verse 8x				     Finishes on
|----------------------5-5-5-5-55-3-3-3-3--|---------------------|
|--5-5-5-55555-55--------------------------|--5-5-5-55555-55-5-5-|
|------------------------------------------|---------------------|
|------------------------------------------|---------------------|
Добавлено: 22.06.2012
Другие материалы по этой песне:
  • Аккорды и текст

Страница создана 22.06.2012
http://primanota.ru/biffy-clyro/twenty-seven-chords.htm
Привет, Гость.
Предлагаем пройти революционный курс по гитаре.
Подарок от PrimaNota.Ru, забирай!