PrimaNota.ru - самый крупный в мире бесплатный архив песенных текстов, аккордов, табулатур и нот


Biffy Clyro - Waiting For Green - текст песни, таба, видео

Регистрация Запомнить меня
Войти через:  Facebook Google Twitter Vk Yandex Mail.ru

Biffy Clyro - Waiting For Green - текст песни, таба, видео

Печатать
Просмотров: 191
Уроки эстрадного вокала в Санкт-Петербурге
Intro/ 1st verse

e|------8-----------8-----------8------------8-------------------|
B|-6----------6-----------6-----------6--------------------------|
G|---------------------------------------------------------------|
D|----0----0-----0----0------8-----8-----8------8----------------|
A|---------------------------------------------------------------|
E|---------------------------------------------------------------| x2

   I am waiting for an answer to
e|------8-----------8-----------8------------8-------------------|
B|-6----------6-----------6-----------6--------------------------|
G|---------------------------------------------------------------|
D|----0----0-----0----0------8-----8-----8------8----------------|
A|---------------------------------------------------------------|
E|---------------------------------------------------------------|

 all the lies they told to try and spoil you 
e|------8-----------8-----------8------------8-------------------|
B|-6----------6-----------6-----------6--------------------------|
G|---------------------------------------------------------------|
D|----0----0-----0----0------8-----8-----8------8----------------|
A|---------------------------------------------------------------|
E|---------------------------------------------------------------|

Pre break

e|-----5-------4-------0------0----------------------------------|
B|---7---7---7---7---7---7--7---7--------------------------------|
G|-7-------6-------5------5--------------------------------------|
D|---------------------------------------------------------------|
A|---------------------------------------------------------------|
E|---------------------------------------------------------------| x2

Break
 
e|---------------------------------------------------------------|
B|---------------------------------------------------------------|
G|---------------------------------------------------------------|
D|-000-0----888-8-8-8---000-0----888-8-8-8-----------------------|
A|-000-0----888-8-8-8---000-0----888-8-8-8-----------------------|
E|-000-0----888-8-8-8---000-0----888-8-8-8-----------------------| x2

Post Break

e|---------------------------------------------------------------|
B|---------------------------------------------------------------|
G|-10101010101010101010------------------------------------------|
D|-10101010101010101010------------------------------------------|
A|-88888888888888888888------------------------------------------|
E|---------------------------------------------------------------|

2nd Verse

e|------8-----------8-----------8------------8-------------------|
B|-6----------6-----------6-----------6--------------------------|
G|---------------------------------------------------------------|
D|----0----0-----0----0------8-----8-----8------8----------------|
A|---------------------------------------------------------------|
E|---------------------------------------------------------------| x2

  We were half a mile away from you
e|------8-----------8-----------8------------8-------------------|
B|-6----------6-----------6-----------6--------------------------|
G|---------------------------------------------------------------|
D|----0----0-----0----0------8-----8-----8------8----------------|
A|---------------------------------------------------------------|
E|---------------------------------------------------------------|

  facing white, facing white
e|------8-----------8-----------8------------8-----8--8--8-------|
B|-6----------6-----------6-----------6--------------------------|
G|---------------------------------------------------------------|
D|---------------------------------8-----8------8---8--8---------|
A|----8----8-----8----8------8-----------------------------------|
E|---------------------------------------------------------------|

  Can't have lost the sweetness of your heart
e|------8-----------8-----------8------------8-------------------|
B|-6----------6-----------6-----------6--------------------------|
G|---------------------------------------------------------------|
D|----0----0-----0----0------8-----8-----8------8----------------|
A|---------------------------------------------------------------|
E|---------------------------------------------------------------|

  while waiting for green, waiting for green
e|------8-----------8-----------8------------8-----8--8--8-------|
B|-6----------6-----------6-----------6--------------------------|
G|---------------------------------------------------------------|
D|---------------------------------8-----8------8---8--8---------|
A|----8----8-----8----8------8-----------------------------------|
E|---------------------------------------------------------------|

Chorus
I have grown up, you are grown and feeling stronger, feeling stronger
 Memories fade but regrets just make them stay forever, last forever
e|-------------------------------------------------------------------|
B|-------------------------------------------------------------------|
G|------------333-33--777-77--333-33-----------333-33--777-77--333-33|
D|-333-3-3-3--333-33--777-77--333-33-333-3-3-3-333-33--777-77--333-33|
A|-333-3-3-3--111-11--555-55--111-11-333-3-3-3-111-11--555-55--111-11|
E|-333-3-3-3-------------------------333-3-3-3-----------------------| x2

Pre break

e|-----5-------4-------0------0----------------------------------|
B|---7---7---7---7---7---7--7---7--------------------------------|
G|-7-------6-------5------5--------------------------------------|
D|---------------------------------------------------------------|
A|---------------------------------------------------------------|
E|---------------------------------------------------------------| x2

Break
 
e|---------------------------------------------------------------|
B|---------------------------------------------------------------|
G|---------------------------------------------------------------|
D|-000-0----888-8-8-8---000-0----888-8-8-8-----------------------|
A|-000-0----888-8-8-8---000-0----888-8-8-8-----------------------|
E|-000-0----888-8-8-8---000-0----888-8-8-8-----------------------| x2

Outro
   growing up growing up growing up growing....
e|---------------------------------------------------------------|
B|---------------------------------------------------------------|
G|---------------------------------------------------------------|
D|-1010101010101010101010101010101010----------------------------|
A|-8888888888888888888888888888888888----------------------------|
E|-0000000000000000008888888888888888----------------------------| x4

Ourto pt2

e|---------------------------------------------------------------|
B|---------------------------------------------------------------|
G|---------------------------------------------------------------|
D|------------xxxx10101010------------xxxxx10101010--------------|
A|-00-00------888888888888--00-00-----8888888888888--------------|
E|-00-00--5p3-888888888888--00-00-5p3-8888888888888--------------| x 2

Everything you left me was the same as I can Everything you wanted was the same as I can
e|---------------------------------------------------------------|
B|---------------------------------------------------------------|
G|---------------------------------------------------------------|
D|------------xxxx10101010------------xxxxx10101010--------------|
A|-00-00------888888888888--00-00-----8888888888888--------------|
E|-00-00--5p3-888888888888--00-00-5p3-8888888888888--------------|

Everything you needed was the same as I can
e|---------------------------------------------------------------|
B|---------------------------------------------------------------|
G|---------------------------------------------------------------|
D|------------xxxx10101010------------xxxxx10101010--------------|
A|-00-00------888888888888--00-00-----8888888888888--------------|
E|-00-00--5p3-888888888888--00-00-5p3-8888888888888--------------|


| /  slide up
| \  slide down
| h  hammer-on
| p  pull-off
| ~  vibrato
| +  harmonic
| x  Mute note
Добавлено: 19.03.2012
Другие материалы по этой песне:
  • Аккорды и текст

Страница создана 19.03.2012
http://primanota.ru/biffy-clyro/waiting-for-green-chords.htm
Привет, Гость.
Предлагаем пройти революционный курс по гитаре.
Подарок от PrimaNota.Ru, забирай!