PrimaNota.ru - самый крупный в мире бесплатный архив песенных текстов, аккордов, табулатур и нот


Biffy Clyro - Weapons Are Concealed - текст песни, таба, бас-таба, видео

Регистрация Запомнить меня
Войти через:  Facebook Google Twitter Vk Yandex Mail.ru

Biffy Clyro - Weapons Are Concealed - текст песни, таба, бас-таба, видео

Печатать
Просмотров: 175
Уроки эстрадного вокала в Санкт-Петербурге
Intro: Distortion
E|-----------------------------------|
B|-----------------------------------|
G|---------------8-9---10------------|x2
D|---------------x-x---x-------11----|
A|---10----8-10--6-7---8-------11----|
E|---8-----6-8-----------------9-----|

E|--------------------------------|--------------------------------|
B|--------------------------------|--------------------------------|
G|---------------8-9---9b---------|---------------8-9--------------|
D|---------------x-x--------------|---------------x-x----3b--------|
A|---10----8-10--6-7--------------|---10----8-10--6-7--------------|
E|---8-----6-8--------------------|---8-----6-8--------------------|

Verse: Clean

E|-----------------------|    E|-----------------------|
B|-----------------------|    B|-----------------------|
G|---5----8----4----8----|    G|---7----8----5----7----|
D|---x----x----x----x----|x4  D|---x----x----x----x----|x2
A|---3----6----2----6----|    A|---5----6----3----5----|
E|-----------------------|    E|-----------------------|

E|-----------------------|    E|-----------------------|
B|-----------------------|    B|-----------------------|
G|---5----8----4----8----|    G|---7----8----5----7----|
D|---x----x----x----x----|x2  D|---x----x----x----x----|x2
A|---3----6----2----6----|    A|---5----6----3----5----|
E|-----------------------|    E|-----------------------|



E|---------------------------|-----------------------------|
B|---------------------------|-----------------------------|
G|---5-----5-----5-----5-----|---6-----6-----5--6/8--6--5--|
D|---x--6--x--6--x--5--x--5--|---x--6--x--6----------------|x2
A|---3-----3-----3-----3-----|---4-----4-----3--4/6--4--3--|
E|---------------------------|-----------------------------|

E|---------------------|---------------------|------------------------|
B|---------------------|---------------------|------------------------|
G|--5--6/8--6--5-------|--5--6--8--6--5------|--5--6--8--6--5---x-x-x-|
D|---------------------|---------------------|------------------x-x-x-|
A|--3--4/6--4--3-------|--3--4--6--4--3------|--3--4--6--4--3---x-x-x-|
E|---------------------|---------------------|------------------------|


Next Part: Still Clean

(Listen to recording to work out strumming pattern)
E|----0----|----0----|---------|---------|
B|----x----|----x----|---(5)---|----7----|
G|----5----|----5----|----5----|----7----|x2
D|----7----|----7----|----5----|----7----|
A|----x----|----x----|----7----|----5----|
E|----5----|----5----|----0----|---------|


E|--------------------------------|
B|--------------------------------|
G|--5---x-x-x--5---5---x-x-x---5--|
D|--0---x-x-x--0---0---x-x-x---0--|x2
A|--x---x-x-x--x---x---x-x-x---x--|
E|--5---x-x-x--5---5---x-x-x---5--|


Driving Chords: Distortion

E|---------------------|---------------------|---------------------------|
B|---------------------|---------------------|----------------7-----5----|
G|---12------9----11---|---11------14----14--|---14------0----7-----5----|x2
D|---12------9----0----|---0-------x-----x---|---x-------2----7-----5----|
A|---10------7----9----|---9-------12----12--|---15------2----5-----3----|
E|---10------7----8----|---10------0-----0---|-----------0---------------|

E|-------------------------------------------------|
B|-------------------------------------------------|
G|---5--------11---------7--------12--------9------|x2
D|---7--------12---------9--------14--------10-----|
A|---7--------12---------9--------14--------10-----|
E|---5--------10---------7--------0---------8------|



E|-------------------------------------------|
B|-------------------------------------------|
G|---5-------4---x-x-x--4---4---x-x-x---4----|
D|---7-------2---x-x-x--2---2---x-x-x---2----|
A|---7-------2---x-x-x--2---2---x-x-x---2----|
E|---5-------0---x-x-x--0---0---x-x-x---0----|


Outro: Clean
(let ring)
E|-------------------|     E|----------------| 
B|----0-----0---0----|     B|---0------------| 
G|----1-----2-/-4----|x2   G|---1------------| 
D|----2-----2--------|     D|---2------------| 
A|----2-----2--------|     A|---2------------| 
E|----0--------------|     E|---0------------| 

Добавлено: 17.07.2013
Другие материалы по этой песне:
  • Аккорды и текст

Страница создана 23.03.2012
http://primanota.ru/biffy-clyro/weapons-are-concealed-chords.htm
Привет, Гость.
Предлагаем пройти революционный курс по гитаре.
Подарок от PrimaNota.Ru, забирай!