PrimaNota.ru - самый крупный в мире бесплатный архив песенных текстов, аккордов, табулатур и нот


Biffy Clyro - Only One Word Comes To Mind - текст песни, таба, бас-таба, видео

Регистрация Запомнить меня
Войти через:  Facebook Google Twitter Vk Yandex Mail.ru

Biffy Clyro - Only One Word Comes To Mind - текст песни, таба, бас-таба, видео

Печатать
Просмотров: 231
Drop-D Tuning) (5x) 
|----------------------------------|--------------------------------| 
|-*7------*7--------*7-------------|--------------------------------| 
|----------------------------------|-7-7-7--7-7-7--6-6-6------------| 
|----------------------------*7----|----------------------7-7-7-----| 
|---*5------*5--------*5-------*7--|--------------------------------| 
|-----*5------*5--------*4-------*7|--------------------------------| 

|--------------------------------------------|----------------------| 
|----------------h---------------h-----------|----------------------| 
|-7-7-7--7-7-7--7-9-/11--6-6-6--6-7-/9-------|-*7----*7--*12--------| 
|---------------------------------------7-7-7|-----*7-------*12-----| 
|--------------------------------------------|---*7-----------------| 
|--------------------------------------------|----------------------| 

Part1 | Part2 |Part3 (4x)|Part4 (4x) |Part2 
|------------|---------------|-------------------|-------------|----| 
|------------|---------------|-------------------|-------------|----| 
|-7777777777-|-7\666666\3333-|-11-11-11-11-11-11-|-7-7-7-7-7-7-|----| 
|-5555555555-|-5-555555\2222-|-0--0--0--0--x--x--|-0-0-0-0-x-x-|----| 
|-5555555555-|-5-555555\2222-|-x--x--x--x--9--9--|-x-x-x-x-5-5-|----| 
|-5555555555-|-5-555555\2222-|-9--9--9--9--0--0--|-5-5-5-5-0-0-|----| 
(Work out rhythm from here onwards, I'm sure you can!) 

Chorus (2x)|Part1 then Part2 |Part3 then... |Part4 
|-----------------|------------------|-------------------|----------| 
|-----------------|------------------|-------------------|----------| 
|-------9-999-9-9-|------------------|-11-11-11-11-14-14-|----------| 
|-0-000-7-777-7-7-|------------------|-0--0--0--0--x--x--|----------| 
|-0-000-7-777-7-7-|------------------|-x--x--x--x--12-12-|----------| 
|-0-000-7-777-7-7-|------------------|-9--9--9--9--0--0--|----------| 

Part2 then Chorus| (2x)|Part1, Part2 
|--------------|-------------|----------------|--10----|------------| 
|--------------|-------------|----------------|----10--|------------| 
|-9----11---12-|-9----11---7-|----------------|------9-|------------| 
|-7----9----10-|-7----9----5-|----------------|------7-|------------| 
|-7----9----10-|-7----9----5-|----------------|------7-|------------| 
|-7----9----10-|-7----9----5-|----------------|-0----7-|------------| 
(?) 
(2x) (2x) (2x) Rpt. bar2 then 1&2 
|---------------|---------------|---------------|-------------------| 
|--------h------|--------h------|--------h------|-------------------| 
|---11-11-12-11-|---11-11-12-11-|---11-11-14-11-|-------------------| 
|-9-------------|-0-------------|---------------|-------------------| 
|---------------|---------------|-12------------|-------------------| 
|---------------|---------------|---------------|-------------------| 

Part5 Part5 
|------------|-----------------------------------|---------|--------| 
|------------|-----------------------------------|---------|--------| 
|-9999-------|-11-11-11-11-11\12-\14-9-9-9-------|-8b^-----|--------| 
|-7777-5-4-0-|-9--9--9--x--x--x---x--7-7-7-5-4-0-|-7b^0--7-|--------| 
|-7777-5-4-0-|-9--9--9--9--9-\10-\12-7-7-7-5-4-0-|----0--7-|--------| 
|-7777-5-4-0-|-9--9--9--0--0--0---0--7-7-7-5-4-0-|----0--7-|--------| 

(4x) (3x) 
|---------------------|---------------|-----------------------------| 
|---------------------|---------------|-----------------------------| 
|-8b^-----------------|-8////14141414-|-----------------------------| 
|-7b^-0-6-0-33-0-10-0-|-7////13131313-|-20-020-020-0-2-3-2--0-------| 
|-----0-6-0-33-0-10-0-|---------------|-20-020-020-0-2-3-2--0-------| 
|-----0-6-0-33-0-10-0-|---------------|-20-020-020-0-2-3-2--0-------| 
(bend&slide) 

Thats the jist of the song, according to waffles
Добавлено: 22.04.2012
Другие материалы по этой песне:

Страница создана 01.03.2012
http://primanota.ru/biffy-clyro/only-one-word-comes-to-mind-chords.htm
Привет, Гость.
Предлагаем пройти революционный курс по гитаре.
Подарок от PrimaNota.Ru, забирай!