PrimaNota.ru - самый крупный в мире бесплатный архив песенных текстов, аккордов, табулатур и нот


Biffy Clyro - Now Im Everyone - текст песни, таба, бас-таба, видео

Регистрация Запомнить меня
Войти через:  Facebook Google Twitter Vk Yandex Mail.ru

Biffy Clyro - Now Im Everyone - текст песни, таба, бас-таба, видео

Печатать
Просмотров: 213
Авторы музыки: Simon Neil
Авторы текста: Simon Neil
Biffy Clyro

Now I'm Everyone (From The 4th Album - Puzzle)

Tabbed by Arctixx (Rearranged For One Guitar)

Intro

e]--------------------------------------------|
b]--10-10----10-10-----15-11-13---------------|
g]--------10-------12\----------10-10---------|
d]------------------------------------12-10\--|
a]--------------------------------------------|
d]--------------------------------------------|

e]--------------------------------------------------------------|
b]--------------------------------------------------------------|
g]--------------------------------------------------------------|
d]--------------------------------------------------------------|
a]--5-5---5-5---5-5---5-5----5-5---5-5---3-3-3/-5-5-------------|
d]--0-0---0-0---0-0---0-0-7/-0-0---0-0---0-0----0-0-------------|

1st Verse

e]----------------------------------------------------|
b]----------------------------------------------------|
g]--7/9\7---2-0-2/5\2---7/9\7---2/5\2--0-0-2-2---2-0--|
d]----------------------------------------------------|
a]----------------------------------------------------|
d]----------------------------------------------------|

e]-----------------------------------------------------------------|
b]-----------------------------------------------------------------|
g]-----------------------------------------------7/9\7--7/9/10\5\2-|
d]--3-0--3-3--5-5--7-7--0-0--3-3--5-5/--10-10\7--------------------|
a]-----------------------------------------------------------------|
d]-----------------------------------------------------------------|

Chorus (Repeat on 1st play)

(Sounds Like 2 Guitars and Bass on Recording - Arranged For One Guitar)

e]------8-----10-----------------------------10----8--|------5---5-3----|
b]-----------------10-------10-----11-----------10----|--------------6--|
g]--------------------------------------10------------|-----------------|
d]----------------------------------------------------|-----------------|
a]----------------------------------------------------|-----------------|
d]--5-5---5-5----5------8-8----8-8----8---------------|--3-3---3--------|


Alternate Ending

e]------5---5---5--|
b]-----------------|
g]-----------------|
d]-----------------|
a]-----------------|
d]--3-3---3---3----|

Go back to 1st Verse then repeat Chorus X4 with Alternate Ending


Bridge

 Part A               Part B

e]--15-14--------     --------|
b]--------15-----     --14----|
g]-----------16--     --16/\--|
d]---------------     --------|
a]---------------     --------|
d]---------------     --------|

Play Part A X16 followed by Part B - Then repeat Part A X23 followed by Part B - Then 
Part A X16


2nd Chorus (Most Likely 2 Guitars on Recording, Rearranged for One)

Listen To Song For Strumming Timing

e]-----3--2-|-3--2--0--3-    |--3--2--0--3-|
b]-----3--3-|-3--3--3--3-    |--3--3--3--3-|
g]-----2--2-|-2--2--2--2- X3 |--0--0--0--0-| X4
d]--12\0--0-|-0--0--0--0-    |--0--0--0--0-|
a]--12\0--0-|-0--0--0--0-    |--3--3--3--3-|
d]--12\0--0-|-0--0--0--0-    |-------------|

Repeat 2nd Chorus

Outro

Listen To Song For Strumming Timing

e]----------    --3-3-3-3-    ----------    e]--3-3-3-3-|
b]--5-5-5-5-    --3-3-3-3-    --3-3-3-3-    b]--3-3-3-3-|
g]--4-4-4-4- X4 --0-0-0-0- X4 --2-2-2-2- X4 g]--0-0-0-0-| X4
d]--2-2-2-2-    --0-0-0-0-    --0-0-0-0-    d]--0-0-0-0-|
a]--2-2-2-2-    --3-3-3-3-    --0-0-0-0-    a]--3-3-3-3-|
d]--2-2-2-2-    --0-0-0-0-    --0-0-0-0-    d]--0-0-0-0-|

Repeat Outro - Finish On Chord Below - Let Chord Ring

e]----------------|
b]--8-------------|
g]--7-------------|
d]--5-------------|
a]--5-------------|
d]--5-------------|
Добавлено: 23.04.2012
Другие материалы по этой песне:

Страница создана 25.03.2012
http://primanota.ru/biffy-clyro/now-im-everyone-chords.htm
Привет, Гость.
Предлагаем пройти революционный курс по гитаре.
Подарок от PrimaNota.Ru, забирай!