PrimaNota.ru - самый крупный в мире бесплатный архив песенных текстов, аккордов, табулатур и нот


Biffy Clyro - Love Sex Magic - таба, видео

Регистрация Запомнить меня
Войти через:  Facebook Google Twitter Vk Yandex Mail.ru

Biffy Clyro - Love Sex Magic - таба, видео

Печатать
Просмотров: 191
-----------------------------------------------------------------
Love Sex Magic - Biffy Clyro 
-----------------------------------------------------------------
Tabbed by: Iain Peters

Email:Tiziain@hotmail.com

Tuning: EADGBe Standard

Wahey! My First Tab.

A Cover of 'Love Sex Magic' by Ciara (feat. Justin Timberlake). Recorded By Biffy 
Clyro In the BBC Live Lounge.

Audio can be heard at 'http://www.youtube.com/watch?v=aKtUraLYdiU'

If you're familiar with this cover, the parts should make sense when fitted together. :)

Ssssimon...

e|----------------------|
B|----------------------|
G|-2-4-5-5/7--0-0-2-4-5-| x2
D|----------------------|
A|----------------------|
E|----------------------|

No Guitar Until Simon says in quite a Barry White style Voice "Baaaaaaby"
Then play this :

   1 + 2 + 3 + 4 +
e|-----12------12--|
B|-----13------13--|
G|-----14------14--| x8
D|----(14)----(14)-|
A|----(12)----(12)-|
E|-----------------|

( ) - Optional notes

Guitar Out

   1 + 2 + 3 + 4 +
e|-----12------12--|
B|-----13------13--|
G|-----14------14--| x16
D|----(14)----(14)-|
A|----(12)----(12)-|
E|-----------------|

During the Middle 8 ( the 'aaaaaaaahhhh, ahhhhhhhhhhh ahhhhhh' bit)

First Time
   Dm       C        G        A
e|-10~----|-8~-----|-7~-----|-5~-----|
B|-10~----|-8~-----|-8~-----|-5~-----|
G|-10~----|-9~-----|-7~-----|-6~-----|
D|-12~----|-10~----|-9~-----|-7~-----|
A|-12~----|-10~----|-10~----|-7~-----|
E|-10~----|-8~-----|-x------|-5~-----|

Second Time
   Dm7      C        Em7/C    Am
e|-10-----|-8------|-7------|-5~-----|
B|-13-----|-8------|-8------|-5~-----|
G|-10-----|-9------|-7------|-5~-----|
D|-10-----|-10-----|-9------|-7~-----|    
A|-12-----|-10-----|-7------|-7~-----|
E|-10-----|-8------|(8)*----|-5~-----|

* I think James plays the C bass note here but it's also possible to play the bass note using your
 thumb or by re-arranging your fingers into some sort of jeremy-beadle-hand type shape. 

Finally,

e|----------------------|
B|----------------------|
G|-2-4-5-5/7--0-0-2-4-5-| x4
D|----------------------|
A|----------------------|
E|----------------------|

Cheers. Rate it and stuff.
Добавлено: 21.05.2012
Другие материалы по этой песне:

Страница создана 23.02.2012
http://primanota.ru/biffy-clyro/love-sex-magic-chords.htm
Привет, Гость.
Предлагаем пройти революционный курс по гитаре.
Подарок от PrimaNota.Ru, забирай!