PrimaNota.ru - самый крупный в мире бесплатный архив песенных текстов, аккордов, табулатур и нот


Biffy Clyro - Living Is A Problem Because Everything Dies - текст песни, таба, бас-таба, видео

Регистрация Запомнить меня
Войти через:  Facebook Google Twitter Vk Yandex Mail.ru

Biffy Clyro - Living Is A Problem Because Everything Dies - текст песни, таба, бас-таба, видео

Печатать
Просмотров: 265
Авторы музыки: Simon Neil
Авторы текста: Simon Neil
------------------------------------------------------------------------------------
|       Living is a Problem Because Everything Dies - Biffy Clyro
------------------------------------------------------------------------------------|
Tabbed by: Jamie Jessop
Email:Lordfrenzied@msn.com


Okay, every other tab on this is completely wrong. The song is in Drop C and i know for
that this is right, and i'm not just saying that as it sounds exactly the same.

Tuning: CGCFAD

Intro is simply this played through out the intro, with the bangs, the choir and right 
to the beginning.
Very simple.
palm muted.

D|---------------------------------------------------------------------------|
A|---------------------------------------------------------------------------|
F|---------------------------------------------------------------------------|
C|---------------------------------------------------------------------------|
G|-----0--0--0--0--0--0--0--0------------------------------------------------|
C|---------------------------------------------------------------------------|


Verse 1
D|----------------------------------------------|----------------------------|
A|----------------Part One-(play twice)---------|-----Part Two-(play once)---|
F|----------------------7--7--7--9--9--9--------|----------------------7--7--|
C|----7--7--7--9--9--9--7--7--7--7--7--7--------|-9--7--9-10-10-10--9--7--7--|
G|----0--0--0--0--0--0--0--0--0--0--0--0--------|-8--8--8--8--8--8--8--8--8--|
C|----------------------------------------------|----------------------------|

D|---------------------|-----------------------------------------------------|
A|---------------------|----(play at end of first verse run through)---------|
F|--7--9--9--9--9--9---|--9--9--9-10--7--7--7--5--7--5--5--7----5--7--5------|
C|--7--7--7--7--7--7---|--0--0--0--0--0--0--0--0--0--0--0--0----0--0--0------|
G|--8--8--8--8--8--8---|--0--0--0--0--0--0--0--0--0--0--0--0----0--0--0------|
C|---------------------|--0--0--0--0--0--0--0--0--0--0--0--0----0--0--0------|

D|---------------------------------------------------------------------------|
A|--------(Play at the end of the verse after the second run through)--------|
F|--9--9--9-10--7--7--7--9--9--9-10--7----7--7-------------------------------|
C|--0--0--0--0--0--0--0--0--0--0--0--0----0--0--7----------------------------|
G|--0--0--0--0--0--0--0--0--0--0--0--0----0--0--0----------------------------|
C|--0--0--0--0--0--0--0--0--0--0--0--0----0--0-------------------------------|


Interlude Riff
D|---------------------------------------------------------------------------|
A|---------------------------------------------------------------------------|
F|----------8-------0---------8-----------------8--------0---5--5--5--5--5---|
C|----7--7----8--10-----7--7----8--10\----7--7----8--10------5--5--5--5--5---|
G|----0--0--------------0--0--------------0--0---------------5--5--5--5--5---|
C|-----------------------------------------------------------0--0--0--0--0---|

D|---------------------------------------------------------------------------|
A|---------------------------------------------------------------------------|
F|-7-------------------------------------------------------------------------|
C|-7---7---------------------------------------------------------------------|
G|-5---0---------------------------------------------------------------------|
C|-0-------------------------------------------------------------------------|

D|---------------------------------------------------------------------------|
A|---------------------------------------------------------------------------|
F|----------8-------0---------8-----------------8--------0---5--5--5--5--5---|
C|----7--7----8--10-----7--7----8--10\----7--7----8--10------5--5--5--5--5---|
G|----0--0--------------0--0--------------0--0---------------5--5--5--5--5---|
C|-----------------------------------------------------------0--0--0--0--0---|

D|---------------------------------------------------------------------------|
A|---------------------------------------------------------------------------|
F|-7-------------------------------------------------------------------------|
C|-7-------------------------------------------------------------------------|
G|-5-------------------------------------------------------------------------|
C|-0-------------------------------------------------------------------------|

Pre-Chorus
D|---------------------------------------------------------------------------|
A|-----------------------(play this twice)-----------------------------------|
F|-----------------------0---------------------------------------------------|
C|-10-10-10-10-10-10-10--0---10-10-10-10-10-10-10-10-10----------------------|
G|--8--8--8--0--7--7--7--0----7--7--7--7--7--7--7--7--7----------------------|
C|----------------------------7--7--7--7--7--7--7--7--7----------------------|

D|-----------------------------------------------------------------------------|
A|------------------------------------------------------4--4--4--4--4--4--4----|
F|-------------------------8--8--8--8--8--8--8--8--8----5--5--5--5--5--5--5----|
C|-10--8--8-10-10--8--8----8--8--8--8--8--8--8--8--8----5--5--5--5--5--5--5----|
G|--6--6--6--6--6--6--6----6--6--6--6--6--6--6--6--6----3--3--3--3--3--3--3----|
C|--6--6--6--6--6--6--6--------------------------------------------------------|


D|---------------------------------------------------------------------------|
A|-4--4--4--4--4--4--4--4--4-------------------------------------------------|
F|-5--5--5--5--5--5--5--5--5-------------------------------------------------|
C|-5--5--5--5--5--5--5--5--5-------------------------------------------------|
G|-3--3--3--3--3--3--3--3--3-------------------------------------------------|
C|---------------------------------------------------------------------------|

D|---------------------------------------------------------------------------|
A|---------------------------------------------------------------------------|
F|-------------------------8--8--8--8--8--8--8--8--8-------------------------|
C|10--8--8-10-10--8--8----8--8--8--8--8--8--8--8--8--5--5--5--5--5--5--5--5--|
G|-6--6--6--6--6--6--6----6--6--6--6--6--6--6--6--6--5--5--5--5--5--5--5--5--|
C|-6--6--6--6--6--6--6-------------------------------5--5--5--5--5--5--5--5--|


Chorus

D|-----------------------------------------------------------------------------|
A|-----------------------------------------------------------------------------|
F|------0-------0-------0---------0-----------0---------0---------0------------|
C|----5---5---5---5---5---5----12--------8---------8---------8---------8-------|
G|--3-------5-------6-------13--------10---10---10---10---10---10---10---10----|
C|-----------------------------------------------------------------------------|

D|-------------------------------------------------------------------0-0-0---|
A|-----------------------------------------------------------0-0-0-0-0-0-0---|
F|--0-------0-------0-------0-------0--------------0-0-0-0-0-0-0-0-0-0-0-0---|
C|--------5---5---5---5---5---5---5---5----5-5-5-5-5-5-5-5-5-5-5-5-5-5-5-5---|
G|------5-------5-------6-------6----------3-3-3-3-3-3-3-3-3-3-3-3-3-3-3-3---|
C|---------------------------------------------------------------------------|

 Verse Two

D|------------------------|------------------------|---------------------------|
A|------------------------|------------------------|---------------------------|
F|------------------------|-------7-----------9--9-|---------------------------|
C|-------7--7--x--x--7--x-|-x--x--7--x--x--x--7--7-|-------7--7--x--x--7--x----|
G|-0--0--0--0--0--0--0--0-|-0--0--0--0--0--0--0--0-|-0--0--0--0--0--0--0--0----|
C|------------------------|------------------------|---------------------------|

D|-------------------------|-----------------------|-------------------------|
A|-------------------------|-----------------------|-------------------------|
F|--------7-----------9--9-|-----------------------|-x--x--7--7--x--x--9--9--|
C|--x--x--7--x--x--x--7--7-|-------7--7--x--x-10-10|-x--x--7--7--x--x--7--7--|
G|--0--0--0--0--0--0--0--0-|-8--8--8--8--x--x--8--8|-x--x--8--8--x--x--8--8--|
C|-------------------------|-----------------------|-------------------------|


P.M this bit slightly
 <-----------------------------------------------------------------------------|
D|-------------------------|------------------------|--------------------------|
A|-------------------------|------------------------|--------------------------|
F|-------------------------|------------------------|---------------------7----|
C|--------7----------10----|-------7--------9--9--9-|-7--7--7--9----9--9--7----|
G|--0--0--0--0--0--0--0--0-|-0--0--0--0--0--0--0--0-|-0--0--0--0----0--0--0----|
C|--0--0--0--0--0--0--0--0-|-0--0--0--0--0--0--0--0-|--------------------------|


D|---------------------|------------------------|----------------------------|
A|---------------------|------------------------|----------------------------|
F|--7--7--9----9--9--9-|---------------------7--|-7--7--9----9--9--9---------|
C|--7--7--7----7--7--7-|-7--7--7--9----9--9--7--|-7--7--7----7--7--7---------|
G|--0--0--0----0--0--0-|-0--0--0--0----0--0--0--|-0--0--0----0--0--0---------|
C|---------------------|------------------------|----------------------------|

D|------------------------|------------------------|-------------------------|
A|------------------------|------------------------|-9--9--9-10--7--7--7--9--|
F|----------------------7-|-7--7--9--9--9--9--9--9-|-0--0--0--0--0--0--0--0--|
C|-9--7--9-10-10-10--9--7-|-7--7--7--7--7--7--7--7-|-0--0--0--0--0--0--0--0--|
G|-8--8--8--8--8--8--8--8-|-8--8--8--8--8--8--8--8-|-0--0--0--0--0--0--0--0--|
C|-------------------------------------------------|-------------------------|

D|---------------------------------------------------------------------------|
A|---------------------------------------------------------------------------|
F|--9--9-10--7----7--7-------------------------------------------------------|
C|--0--0--0--0----0--0--7----------------------------------------------------|
G|--0--0--0--0----0--0--0----------------------------------------------------|
C|--0--0--0--0----0--0-------------------------------------------------------|

This is the whole song, correct!

Structure
---------

Intro
Verse 1
Interlude
pre-chorus
Chorus
Verse 2
Interlude
Pre-chorus
Chorus
Intro (shorter)
Pre-chorus
Chorus


Lyrics
------


Come on baby do you
think it's good to feel
like I'm lying here
swimming in memories.

I fear God because everything dies babe
got a gun in the back of my Car
This spasm of good sense
is making my eyes twitch
I've had enough on your consulations
I'm drowning caught in a shit tide
take my face to the inside of love
nothing to eat but fears in the back seat
well I met God he had nothing to say to me

I pray to god
that you're right before my eyes,
bathed in white light,
with halos in your eyes.

Don't wanna waste no more time
time's what we don't have
Everywhere I look someone dies
wonder when it's my turn

Hello do you know me
leave an open door
what you're looking for
baby when you come down, come down
I built a time machine to escape from
all the pain in the back on my car
Living's a problem
'cause everything dies babe,
save yourself we're not too far away

I pray to god
that you're right before my eyes
bathed in white light
with halos in your eyes.

Don't wanna waste no more time
time's what we don't have
Everywhere I look someone dies
wonder when it's my turn

I pray to god
that you're right before my eyes
bathed in white light
with halos in your eyes

Don't wanna waste no more time,
time's what we don't have.
Everywhere I look someone dies,
wonder when it's my turn.

| /  slide up
| \  slide down
| h  hammer-on
| p  pull-off
| ~  vibrato
| +  harmonic
| x  Mute note
===============================================================================
Добавлено: 23.03.2012
Другие материалы по этой песне:

Страница создана 02.03.2012
http://primanota.ru/biffy-clyro/living-is-a-problem-because-everything-dies-chords.htm
Привет, Гость.
Предлагаем пройти революционный курс по гитаре.
Подарок от PrimaNota.Ru, забирай!