PrimaNota.ru - самый крупный в мире бесплатный архив песенных текстов, аккордов, табулатур и нот


Biffy Clyro - Liberate The Illiterate - текст песни, таба, бас-таба, видео

Регистрация Запомнить меня
Войти через:  Facebook Google Twitter Vk Yandex Mail.ru

Biffy Clyro - Liberate The Illiterate - текст песни, таба, бас-таба, видео

Печатать
Просмотров: 214
---------------------------------------------------------------------
    Biffy Clyro = Liberate the Illiterate/a mong among mingers
---------------------------------------------------------------------

FINALLY!!sorry ive taken so long to get another tab out(tombuttcrunch116@hotmail.com).
people hav bin asking me for one for ages. so heres my second tab of the new
album: liberate the illiterate/a mong among mingers.love this song.the others are
on their way.have fun.i know some bits are wrong eg:pre-chorus2.By the way its in drop D

h : harmonic

Intro (0:00)
e|------------------------------
b|---7--7-7-7--7--7-7-7--8--8---
g|---5--5-5-5--5--5-5-5--7--7---
d|------------------------------
a|---5--5-5-5--6--6-6-6--7--7---
D|------------------------------

e|----------------------------||
b|-------7--7-----7--7----8---||
g|-----5--5-----5--5------7--o||
d|---------------------------o||(repeat)
a|---5--------6---------7-----||
D|----------------------------||

e|---7-7--7-7-7--3---
b|-------------------
g|---4-4--4-4-4--0---
d|-------------------
a|-------------------
D|-------------------

Verse (0:25)
e|---7-7--7-7-7--7-7----------------------------------7-7--7-7-7--5-3
b|-------------------7-7--7-7-7--7-7--8-8--8-8-8--8-8----------------
g|---4-4--4-4-4--4-4----------------------------------4-4--4-4-4--2-0
d|-------------------4-4--4-4-4--4-4--5-5--5-5-5--5-5----------------
a|-------------------------------------------------------------------
D|-------------------------------------------------------------------

e|---7-7--7-7-7--5-3---------
b|-------------------7-5-3---
g|---4-7--7-7-7--2-0---------
d|-------------------4-2-0---
a|---------------------------
D|---------------------------

Pre-Bridge (0:51)
e|-------------------------------
b|-------------------------------
g|---9--7--2---------------------
d|----------0-----2-2-2-2-2--0---
a|---7--5----0----2-2-2-2-2--0---
D|------------0---2-2-2-2-2--0---

e|-------------------------------------------------------
b|-------------------------------------------------------
g|---9--7--2---------------------------------------------
d|----------0-----2-0-2--2-0-2--2-0--2-0-2--2-0-2--2-0---
a|---7--5----0----2-0-2--2-0-2--2-0----------------------
D|------------0---2-0-2--2-0-2--2-0----------------------

                    h
e|------------------12---------------------------
b|------------------12---------------------------
g|-----------------------------------------------
d|---9-9-x-9-9-9-7--------9-7-9--9-7-9--9-7------
a|---7-7-x-7-7-7-5-------------------------------
D|-----------------------------------------------

Bridge (1:13)
e|---------------------------------------------
b|---------------------------------------------
g|---------------------------------------------
d|---2-0-2--2-0-2--6--0--2-0-2--2-0-2--6-7-0---
a|---2-0-2--2-0-2--6--0--2-0-2--2-0-2--6-7-0---
D|---2-0-2--2-0-2--6--0--2-0-2--2-0-2--6-7-0---

e|------------------------------------------------------------
b|------------------------------------------------------------
g|------------------------------------------------------------
d|---2-0-2--2-0-2--6--7--9--0-0-0-0-0-0-0-0-0-0-0-0-0-0-0-0---
a|---2-0-2--2-0-2--6--7--9--0-0-0-0-0-0-0-0-0-0-0-0-0-0-0-0---
D|---2-0-2--2-0-2--6--7--9--0-0-0-0-0-0-0-0-0-0-0-0-0-0-0-0---

Chorus (1:23)
e|--------------------------------------------------------------
b|--------------------------------------------------------------
g|---6-6-6-6-6-6-6-6-6-6-6-6-6-6-4-4-6-6-6-6-6-6-6-6-6-6-6-6-4--
d|---4-4-4-4-4-4-4-4-4-4-4-4-4-4-4-4-7-7-7-7-7-7-7-7-7-7-7-7-7--
a|---4-4-4-4-4-4-4-4-4-4-4-4-4-4-4-4-7-7-7-7-7-7-7-7-7-7-7-7-7--
D|---4-4-4-4-4-4-4-4-4-4-4-4-4-4-4-4-7-7-7-7-7-7-7-7-7-7-7-7-7--

e|-------------------------------------
b|-------------------------------------
g|---6-6-6-6-6-6-6-6-6-6-6-6-6-6-4-4---
d|---4-4-4-4-4-4-4-4-4-4-4-4-4-4-4-4---
a|---4-4-4-4-4-4-4-4-4-4-4-4-4-4-4-4---
D|---4-4-4-4-4-4-4-4-4-4-4-4-4-4-4-4---

                            h       h h
e|----------------------------------------||
b|----------------------------------------||
g|---------------------------------------o||
d|---0-0-0-0-2-2-2-2--4-2-4-x-4-2-4-x-x--o||
a|---0-0-0-0-2-2-2-2--4-2-4-x-4-2-4-x-x---||
D|---0-0-0-0-2-2-2-2--4-2-4-x-4-2-4-x-x---||

e|---------------------------||--------------
b|---------------------------||(x3)----------
g|--------------------------o||-----------2--
d|---0--0-0-0-0--4--4-4-4-4-o||-----2-2-0-0--
a|---0--0-0-0-0--4--4-4-4-4--||-----2-2-0-0--
D|---0--0-0-0-0--4--4-4-4-4--||-----2-2-0-0--

Pre-Verse2 (1:57)
e|---------------------------------------------
b|-------7--7-----7--7----8--8--10-12-10-8-----
g|-----5--5-----5--5---------------------------
d|---------------------------5--7--9--7--5-----
a|---5--------6---------7----------------------
D|---------------------------------------------

e|----------------------------------------------
b|-------7--7-----7--7--------------------------
g|-----5--5-----5--5----------------------------
d|------------------------------5-5--5-5-5--5---
a|---5--------6---------7-----------------------
D|------------------------------5-5--5-5-5--5---

Verse (play same as verse1) (2:09)

Pre-Chorus (2:44)
e|-----------------------||(repeat)--------------------------
b|-----------------------||----------------------------------
g|----------------------o||-131313131313131313131313131413---
d|---9-9-9-9-9--9-9--11-o||----------------------------------
a|---7-7-7-7-7--7-7--9---||-111111111111111111111111111211---
D|-----------------------||----------------------------------

Chorus (play same as chorus1) (2:55)

Post-Chorus (3:23)
e|---------------------------------
b|---------------------------------
g|---9--5--6--5--8--9--14-----14---
d|---7--3--4--3--6--7--12---12-----
a|---7--3--4--3--6--7--12----------
D|---7--3--4--3--6--7--12----------

e|-------------------------------------------------------------------
b|-------------------------------------------------------------------
g|-------------------------------------------------------------------
d|-------------------------------------------------------------------
a|-------------------------------------------------------------------
D|---7-7-7-7-7-7-7-7-3-3-3-3-3-3-3-3-4-4-4-4-4-4-4-4-3-3-3-3-3-3-3-3-
pm  |_______________________________________________________________|

e|------------------------------------------
b|------------------------------------------
g|------------------------------------------
d|------------------------------------------
a|-------------6-6-6-7-7-7-7-7-7-7-7--------
D|---6-6-6-6-6-6-6-6-7-7-7-7-7-7-7-7--------
pm  |______________________________________|

Pre-Outro Chorus (3:59)
e|--------------------||
b|--------------------||
g|---2--2-2-2-2--2-2-o||
d|---0--0-0-0-0--0-0-o||
a|---0--0-0-0-0--0-0--||
D|---0--0-0-0-0--0-0--||
(repeat many times)

Outro Chorus (4:12)
e|-----------------------------------
b|-----------------------------------
g|-----------------------------------
d|---7-7-7-7-7-7-7-7-0-0-0-0-0-0-0-0-
a|---7-7-7-7-7-7-7-7-0-0-0-0-0-0-0-0-
D|---7-7-7-7-7-7-7-7-0-0-0-0-0-0-0-0-
(repeat)

Outro (4:39)
"Liberate the Illiterate"
e|------------------------------------------
b|------------------------------------------
g|------------------------------------------
d|---9--9-9-9--7-9--9-9--6--6-6-6-7--4-4-4--
a|---7--7-7-7--7-7--7-7--5--5-5-5-5--5-5-5--
D|------------------------------------------

e|------------------------------------------
b|------------------------------------------
g|------------------------------------------
d|---9--9-9-9--7-9--9-9--6--6-6-6-7--4-4-4--
a|---7--7-7-7--7-7--7-7--5--5-5-5-5--5-5-5--
D|------------------------------------------

e|---7-7-7--5-7---4-4-4--5-2---
b|-----------------------------
g|---4-4-4--4-4---2-2-2--2-2---
d|-----------------------------
a|-----------------------------
D|-----------------------------

e|---7-7-7-5-7---4-----4----5----2---||
b|-----------------------------------||
g|---4-4-4-4-4---2-----2----2----2---||
d|-----------------------------------||
a|-----------------------------------||
D|-----------------------------------||


Lying there on the desk you left a letter
When i touched it it shivered in my hand
Добавлено: 20.06.2012
Другие материалы по этой песне:

Страница создана 20.03.2012
http://primanota.ru/biffy-clyro/liberate-the-illiterate-chords.htm
Привет, Гость.
Предлагаем пройти революционный курс по гитаре.
Подарок от PrimaNota.Ru, забирай!