PrimaNota.ru - самый крупный в мире бесплатный архив песенных текстов, аккордов, табулатур и нот


Biffy Clyro - Fifty Seven - бас-таба, видео

Регистрация Запомнить меня
Войти через:  Facebook Google Twitter Vk Yandex Mail.ru

Biffy Clyro - Fifty Seven - бас-таба, видео

Печатать
Просмотров: 174
Biffy Clyro - Fifty-seven

The timing on this tab is a bit dodgy, but just listen to the CD and you'll get it.

In Drop D

Intro (Heavy Bit)
G------------------------------|
D------------------------------|
A------------------------------|
D-0-5-0-4/5-5-4-4-4-4--4-4-4-4-|

Verse 1
G---------------------|
D---------------------|
A--9--------5---------|
D---------------------|

Bridge/verse 2
G-----------------------------|
D-----------------------------|
A-9-9-9-975-4-4-4-457-9-------|
D-----------------------------|

Chrous part 1
G----------------------------------|
D----------------------------------|
A----------------------------------|
D--5-5-5-5-7-7-7-7-9-9-9-9-0-0-0-0-|

rest for quiet bit

Chorus part 2
G----------------------------------|
D----------------------------------|
A----------------------------------|
D--0-0-0-0-7-7-7-7-5-5-5-5-5-5-5-5-|

Outro
G---------------------------------|
D---------------------------------|
A--9-9-9-754 4/55555--------------|
D---------------------------------|

Enjoy!
Добавлено: 20.07.2012
Другие материалы по этой песне:
  • Аккорды и текст

Страница создана 20.07.2012
http://primanota.ru/biffy-clyro/fifty-seven-chords.htm
Привет, Гость.
Предлагаем пройти революционный курс по гитаре.
Подарок от PrimaNota.Ru, забирай!