PrimaNota.ru - самый крупный в мире бесплатный архив песенных текстов, аккордов, табулатур и нот


Biffy Clyro - Go Your Own Way - таба, видео

Регистрация Запомнить меня
Войти через:  Facebook Google Twitter Vk Yandex Mail.ru

Biffy Clyro - Go Your Own Way - таба, видео

Печатать
Просмотров: 176
Biffy Clyro - Go Your Own Way (Fleetwood Mac Cover)
---------------------------------------------------

Tabbed by: PropaDerbyLad
Email: rabid_monkey28@hotmail.com 

Dropped D Tuning (DADGBe)

Verse: 
(Distortion)

e--------------------------------|
B--------------------------------|
G-------------------6-6-6--------|   (x4)
D--(Bass riff)------x-x-x--------|
A-------------------4-4-4--------|
D--------------------------------|


Chorus:
 
e------------------------------------------------------------------------|
B-------------------------------------------------------101010\999-------|
G---7----------9----------------7----------9---------------999\888-------|  
D---x-(x15)----x-(x15)----------x-(x15)----x-(x7)----------777\666-------|
A---5-(Clean)--7-(Distortion)---5-(Clean)--7-(Distortion)----------------|
D------------------------------------------------------------------------|


e-------------------------------|
B-------7-7/8-------------------|
G--------6---7------------------|  
D--0~-----------5~--------------|
A--0~-----------5~--------------|
D--0~-----------5~--------------|

Post-chorus:
(Distortion)

e--------------------------------------|
B--------------------------------------|
G-------------------------6-6-6--------|   (x2)
D--7/9-99-7h9h7-0-7/9-99--x-x-x--------|
A--7/9-99-7h9h7-0-7/9-99--4-4-4--------|
D--7/9-99-7h9h7-0-7/9-99---------------|

Verse:

e--------------------------------|
B--------------------------------|
G-------------------6-6-6--------|   (x4)
D--(Bass riff)------x-x-x--------|
A-------------------4-4-4--------|
D--------------------------------|

Breakdown after Verse:
(Distortion)

e---------------------------------------|
B---------------------------------------|
G--13-------13\------11\-----9----------|   (x2)
D--11-(x32--x\--(x8)--x\--(x4)-x--(x2)--|
A--11-------11\------9\------7----------|
D--11-----------------------------------|

e------------------------------------------------------------|
B------------------------------------------------------------|
G--/14-------13-----------------------------------13---------|
D--/x--(x61)-x-(x3)--0------2------2------5-------11-(x32)---|
A--/12-------11------0-(x8)-2-(x8)-3-(x8)-3-(x8)--11---------|
D--------------------0------2------2------2-------11---------|

e----------------------------------------------------------------|
B----------------------------------------------------------------|
G--13\------11\------9--------13--------13\-------7\------9-9----|
D--x\--(x8)-x\--(x4)-x--(x2)--11-(x32)--x\--(x10)-x\-(x2)-x-x----|
A--11\------9\-------7--------11--------11\-------9\------7-7----|
D--0--------0--------0--------11---------------------------------|
 
Outro:
(Distortion)

e--------------------------------------------------------|
B--------------------------------------------------------|
G--9-9-------/13-------9-9-------9-9-9-9-9-9-9-9\7-------|
D--x-x-(x9)-/x--(x4)---x-x-(x42)-x-x-x-x-x-x-x-x\x-0-----|
A--7-7-------/11-------7-7-------7-7-7-7-7-7-7-7\5-0-----|
D--0-0-----------------0-0-------0-0-0-0-0-0-0-----0-----|

Excellent cover by a truly great band...MON THE BIFF!!

| /  slide up
| \  slide down
| h  hammer-on
| p  pull-off
| ~  vibrato
| +  harmonic
| x  Mute note
=============================================================================
Добавлено: 31.05.2012
Другие материалы по этой песне:
  • Аккорды и текст

Страница создана 31.05.2012
http://primanota.ru/biffy-clyro/go-your-own-way-chords.htm
Привет, Гость.
Предлагаем пройти революционный курс по гитаре.
Подарок от PrimaNota.Ru, забирай!