PrimaNota.ru - самый крупный в мире бесплатный архив песенных текстов, аккордов, табулатур и нот


Biffy Clyro - Got Wrong - текст песни, таба, видео

Регистрация Запомнить меня
Войти через:  Facebook Google Twitter Vk Yandex Mail.ru

Biffy Clyro - Got Wrong - текст песни, таба, видео

Печатать
Просмотров: 167
i cant claim anything for this. i found it on Biffytabs.tk and no one put it up yet so i 
id put it here.

Got Wrong
Emmet O' Riabhaigh, Cork

Intro

d]-----------------------------------------------------|
a]-----------------------------------------------------|
f]-----------------------------------------------------|
c]---7-7-7-0-------------------------------------------|
g]---6-6-6-0---(*slight bend)-(let ring)---(x2)--------|
c]---6-6-6-0-------------------------------------------|
    * * *

Clean Part just before "I'm wrong..."

d]----------------------------------------------------|
a]----------------------------------------------------|
f]-----------9--0-------3\----------------------------|
c]----------10-10-------3\----------------------------|
g]-----/8-8---------1-1-------------------------------|
c]----------------------------------------------------|

"I'm Wrong..." (00:06)

d]---------------------------------------------------|
a]---------------------------------------------------|
f]---------------------------------------------------|
c]---0-0-0-0-0-0-0-0-7-7-7-0-0-0-0-0-7-7-7-0-0-0-0-0-|
g]---0-0-0-0-0-0-0-0-5-5-5-0-0-0-0-0-5-5-5-0-0-0-0-0-|
c]---0-0-0-0-0-0-0-0-5-5-5-0-0-0-0-0-5-5-5-0-0-0-0-0-|

d]---------------------------------------------------|
a]---------------------------------------------------|
f]---------------------------------------------------|
c]-4-4-4-/9-9-9-11-----11---11-----------------------|
g]-4-4-4-/9-9-9--9------9----9----(x2)---------------|
c]-4-4-4-/9-9-9--9-9-9--9-9--9-----------------------|


(.."Could you Dance"....)
                        **
d]-----------------------7-----7-----7---------------|
a]-------------------------7-----7-----7-------------|
f]--/7-7-7-7-9-9-9-9---------7-----7-----------------|
c]--/0-0-0-0-0-0-0-0---------------------------------|
g]---------------------------------------------------|
c]---------------------------------------------------|

d]----7-----7-----7----2-----2-----2----4-----4------|
a]------7-----7-----7----3-----3-----3----3-----3----|
f]--------6-----6----------4-----4----------4-----4--|
c]---------------------------------------------------|
g]---------------------------------------------------|
c]---------------------------------------------------|

d]---4-----------------------------------------------|
a]-----3------(then play)----------------------------|
f]--------------------------/11-11-11-9-9-9-7-7------|
c]--------------------------/0--0--0--0-0-0-0-0------|
g]---------------------------------------------------|
c]---------------------------------------------------|

 Then repeat from **

 Followed by "I'm wrong" part again


d]---------------------------------------------------|
a]---------------------------------------------------|
f]---7-7-7-/9-9-9-8-8-8-/11-11-11-11-----------------|
c]---0-0-0-/0-0-0-0-0-0-/0--0--0--0------------------|
g]---------------------------------------------------|
c]---------------------------------------------------|

  Repeat from ** again

  Then play:

d]---------------------------------------------------|
a]---------------------------------------------------|
f]---9/11-11-9/11-11-9/11-11-9/11-11-----------------|
c]---0----0--0----0--0----0--0----0------------------|
g]---------------------------------------------------|
c]---------------------------------------------------|

  ("In other words...")

d]---------------------------------------------------|
a]---------------------------------------------------|
f]---------------------------------------------------|
c]----5--3--7-7-7-7-7-7-7----------------------------|
g]---------------------------------------------------|
c]----5--3--8-8-8-8-8-8-8----------------------------|

    Then "Got Wrong" part again, except finish with this
  just before the solo. ("from the Horns")

d]---------------------------------------------------|
a]---------------------------------------------------|
f]---------------------------------------------------|
c]---5-5-5/-7-7-7------------------------------------|
g]---------------------------------------------------|
c]---5-5-0/-8-8-8------------------------------------|

 Solo:

d]----------------------------------------------------|
a]----------------------------------------------------|
f]----------------------------------------------------|
c]----------------------------------------------------|
g]----5/7-7/8-8/9------5/7-7\5-5b---------------------|
c]--0--0-0-0-0-------0--0-0---------------------------|

d]-------------------------------------------------------|
a]-------------------------------------------------------|
f]-------------------------------------------------------|
c]------------------9\7----------------------------------|
g]----5/7-7/8-8/9-------9-7\5/17\------------------------|
c]--0--0-0-0-0-------------------------------------------|

d]---------------------------------------------------|
a]---------------------------------------------------|
f]--------------------------------Then---------------|
c]-----------------9p7-------(x3)--------------------|
g]----5/7-7/8-8/9------9\-------------5/7-7\5-5------|
c]--0--0-0-0-0----------------------0--0-0-----------|

 ("In other words"...)

d]---------------------------------------------------|
a]---------------------------------------------------|
f]---------------------------------------------------|
c]----7-7-7-7-7-7-7--3/5-----------------------------|
g]-------------------------(x6)----------------------|
c]----8-8-8-8-8-8-8--3/5-----------------------------|

  The last time it slightly changes ("to rely...")

d]-----------------------------------------------------|
a]-----------------------------------------------------|
f]-----------------------------------------------------|
c]---10-10-10-10-10-10-7-7-7-7-7-----------------------|
g]----------------------------------(x3)---------------|
c]---10-10-10-10-10-10-8-8-8-8-8-----------------------|

d]-----------------------------------------------------|
a]-----------------------------------------------------|
f]-----end on------------------------------------------|
c]-------------0---------------------------------------|
g]-------------0---------------------------------------|
c]-------------0---------------------------------------|

Printed from www.biffytabs.tk
Добавлено: 18.07.2012
Другие материалы по этой песне:
  • Аккорды и текст

Страница создана 18.03.2012
http://primanota.ru/biffy-clyro/got-wrong-chords.htm
Привет, Гость.
Предлагаем пройти революционный курс по гитаре.
Подарок от PrimaNota.Ru, забирай!