PrimaNota.ru - самый крупный в мире бесплатный архив песенных текстов, аккордов, табулатур и нот


Beatsteaks - Metzies Song - таба

Регистрация Запомнить меня
Войти через:  Facebook Google Twitter Vk Yandex Mail.ru

Beatsteaks - Metzies Song - таба

Печатать
Просмотров: 126
Mietzi's Song- Beatsteaks
========================
Tabbed by Sue (Sue.Donot@gmx.de)

Intro/Verse                                                     5x
e|------------------------------------------------------------------| 
B|------------------------------------------------------------------|
G|------------------------------------------------------------------|
D|------------------------------------------------------------------|
A|------------------------------------------------------------------|
E|-0--0-0-0-0-0-0--4--4-4-4-4-4-4--5--5-5-5-5-5-5-5-5-5-5-5--4-5-4--|

 
I close my eyes again and think of you...                    1x
e|--------------------------------------------------------------| 
B|--------------------------------------------------------------|
G|--------------------------------------------------------------|
D|--------------------------------------------------------------|
A|--------------------------------------------------------------|
E|-7--7-7-7-7-7-7--5--5-5-5-5-5-5--0-0-0-0-0-0-0-0-0-0-0-0--3-3-|


Intro/Verse 4x

I close my eyes again and think of you...                  2x
e|-----------------------------------------------------------| 
B|-----------------------------------------------------------|
G|-----------------------------------------------------------|
D|-----------------------------------------------------------|
A|-----------------------------------------------------------|
E|-7--7-7-7-7-7-7--5--5-5-5-5-5-5--0-0-0-0-0-0-0-0-0-0-0-0---|


Fill In

e|------------------------------------------------------------------|
B|------------------------------------------------------------------|
G|------------------------------------------------------------------|
D|------------------------------------------------------------------|
A|------------------------------------------------------------------|
E|-0--0-0-0-0-0-4--4-4-4-4-4-0--0-0-0-0-0-4--4-4-4-4-4-7--7-7-7-7-7-|


I see myself in you...
                                                        2x      
e|----------------------------------------------------------|  
B|----------------------------------------------------------|
G|----------------------------------------------------------|
D|----------------------------------------------------------|
A|----------------------------------------------------------|
E|-5-5-5-5-5-5-5-0--0-0-0-0-0-0-4-4-4-4-4-4-4-7--7-7-7-7-7-7|


Time slips away...

e|-----------------------------------------------------------|
B|-----------------------------------------------------------|
G|-----------------------------------------------------------|
D|-----------------------------------------------------------|
A|-----------------------------------------------------------|
G|-5-5-5-5-5-5-5-9--9-9-9-9-9-9-7-7-7-7-7-7-7-0--0-0-0-0-0-0-|

And I know, I know....
e|-----------------------------------------------------------|
B|-----------------------------------------------------------|
G|-----------------------------------------------------------|
D|-----------------------------------------------------------|
A|-----------------------------------------------------------|
E|-5-5-5-5-5-5-5-7--7-7-7-7-7-7-9-9-9-9-9-9-9-4--4-4-4-4-4-4-|
                                
                               3x 
e|-------------------------------|
B|-------------------------------|
G|-------------------------------|
D|-------------------------------|
A|-------------------------------|
E|-5--5-5-5-5-5-5-7--7-7-7-7-7-7-|


Outro
e|----------------------------------------------------------|--
B|----------------------------------------------------------|--
G|----------------------------------------------------------|--
D|----------------------------------------------------------|--
A|----------------------------------------------------------|--
E|-0--0-0-0-0-0-0--4--4-4-4-4-4-4--5--5-5-5-5-5-5-5-5-5-5-5-|--

I close my eyes again and think of you...                  
|---------------------------------------------| 3x
|---------------------------------------------|
|---------------------------------------------|
|---------------------------------------------|
|---------------------------------------------|
|-7--7-7-7-7-7-7--5--5-5-5-5-5-5--0-0-0-0-0---|

Добавлено: 06.04.2012
Другие материалы по этой песне:
  • Аккорды и текст

Страница создана 06.04.2012
http://primanota.ru/beatsteaks/metzies-song-chords.htm
Привет, Гость.
Предлагаем пройти революционный курс по гитаре.
Подарок от PrimaNota.Ru, забирай!