PrimaNota.ru - самый крупный в мире бесплатный архив песенных текстов, аккордов, табулатур и нот


Beatsteaks - Panic - текст песни, таба, видео

Регистрация Запомнить меня
Войти через:  Facebook Google Twitter Vk Yandex Mail.ru

Beatsteaks - Panic - текст песни, таба, видео

Печатать
Просмотров: 164
Авторы музыки: Uwe Sabirowsky, Bernd Kurtzke, Alexander Roßwaag, Arnim Teutoburg-Weiß, Peter Baumann
Авторы текста: Arnim Teutoburg-Weiß
-------------------------------------------------------------------------------
                                PANIC - Beatsteaks
-------------------------------------------------------------------------------

Written for standard tuning, tune guitar half a step down
for easier playing... but then figure the tab out yourself:)

 play 4x
e-------------|
B-------------|
G-------------|
D---------8---|
A---7h8p7-----|
E-------------|
                   play 6x
e-----------------|---------------------------------|
B-----------------|---------------------------------|
G---8-6-----------|---------------------------------|
D---8-6-8-7-6-4---|---8---8-8-8-8-8-8-8-8-8---------|
A---6-4-8-7-6-4---|---8---8-8-8-8-8-8-8-8-8-7h8p7---|
E-------6-5-4-2---|---6---6-6-6-6-6-6-6-6-6---------|

 uh...               play 2x
e-------|-----------|---------------------------------|
B-------|-----------|---------------------------------|
G---6---|-----------|---------------------------------|
D---6---|-----------|---8---8-8-8-8-8-8-8-8-8---------|
A---4---|---7h8p7---|---8---8-8-8-8-8-8-8-8-8-7h8p7---|
E-------|-----------|---6---6-6-6-6-6-6-6-6-6---------|

bass plays F#, D#, A# (2x)

 play 6x
e---------------------------------|
B---------------------------------|
G---------------------------------|
D---8---8-8-8-8-8-8-8-8-8---------|
A---8---8-8-8-8-8-8-8-8-8-7h8p7---|
E---6---6-6-6-6-6-6-6-6-6---------|

 uh...               play 2x
e-------|-----------|---------------------------------|
B-------|-----------|---------------------------------|
G---6---|-----------|---------------------------------|
D---6---|-----------|---8---8-8-8-8-8-8-8-8-8---------|
A---4---|---7h8p7---|---8---8-8-8-8-8-8-8-8-8-7h8p7---|
E-------|-----------|---6---6-6-6-6-6-6-6-6-6---------|

bass plays F#, D#, A# (2x)

 play each chord 8x
e-----------------------------------------------------------|
B-----------------------------------------------------------|
G---------------------------------------6-----6-------------|
D---/--p--a--l--m-----m--u--t--e--\-----6-----6-------------|
A---4-----6-----8-----8-----4-----6-----4-----4-----7h8p7---|
E---2-----6-----6-----6-----2-----6-------------------------|

 play 3x
e---------------------------------------|
B---------------------------------------|
G---------------------------------------|
D---8-8-8-8-8-8-8-8-4-4-4-4-4-4---------|
A---8-8-8-8-8-8-8-8-4-4-4-4-4-4-7h8p7---|
E---6-6-6-6-6-6-6-6-2-2-2-2-2-2---------|
 
 play 4x                             play 2x
e-----------------------------------|---------------------|
B-----------------------------------|---------------------|
G-----------------------------------|---------------------|
D---8-8-8-8-8-8-8-8-4-4-4-4-4-4-6---|---8-8-8-8-8-8-8-8---|
A---8-8-8-8-8-8-8-8-4-4-4-4-4-4-6---|---8-8-8-8-8-8-8-8---|
E---6-6-6-6-6-6-6-6-2-2-2-2-2-2-4---|---6-6-6-6-6-6-6-6---|

 play 4x | * = play 8x
e-------------------------|
B-------------------------|
G----*-----*-----*-----*--|
D---4-----4-----8-----8---|
A---4-----6-----8-----8---|
E---2-----6-----6-----6---|

 play 4x | * = play 8x
e------------------------------------------|
B------------------------------------------|
G----*-----*----10-10-10-10-------8-10-----|
D---4-----4-----------------11-11------8---|
A---4-----6--------------------------------|
E---2-----6--------------------------------|

 * = play 8x
e-------------------------------------------|
B-------------------------------------------|
G----*-----*----------------8-6-1-----------|
D---4-----4-----8-----------8-6-1-7-6-4-8---|
A---4-----6-----8-----------6-4-8-7-6-4-8---|
E---2-----6-----6---------------6-5-4-2-6---|

 
Solo:                         2x
            1-------------------------------------------.
            2-----8----8----8----8----------------------.
            3-----10b--10b--10b--10b---10---8-----------.
            4-----------------------------------10---8--.
            5-------------------------------------------.
            6-------------------------------------------.
Добавлено: 25.05.2012
Другие материалы по этой песне:
  • Аккорды и текст

Страница создана 27.02.2012
http://primanota.ru/beatsteaks/panic-chords.htm
Привет, Гость.
Предлагаем пройти революционный курс по гитаре.
Подарок от PrimaNota.Ru, забирай!