PrimaNota.ru - самый крупный в мире бесплатный архив песенных текстов, аккордов, табулатур и нот


Beatsteaks - Mirrores - таба, видео

Регистрация Запомнить меня
Войти через:  Facebook Google Twitter Vk Yandex Mail.ru

Beatsteaks - Mirrores - таба, видео

Печатать
Просмотров: 113
NOTE: play each pattern as long
      as necessary (listen to
      the CD)

TUNE DOWN A HALF STEP!: [EbAbDbGbBbEb]


                                    MIRRORED

                                   bEaTsTeAkS


__first one, then both guitars______________________________________________

        P.M.        P.M.       P.M.       P.M.        P.M.       P.M.
|---------------------------------------------------------------------------|
|---------------------------------------------------------------------------|
|--6----6-6----6----6-6----6----6----6----6-6----6----6-6----6----6----6----|
|--x----x-x----x----x-x----x----x----x----x-x----x----x-x----x----x----x----|
|--4----4-4----4----4-4----4----4----4----4-4----4----4-4----4----4----4----|
|---------------------------------------------------------------------------|


        P.M.        P.M.       P.M.       P.M.        P.M.       P.M.
|---------------------------------------------------------------------------|
|---------------------------------------------------------------------------|
|--6----6-6----6----6-6----6----6----6----6-6----6----6-6----6----6----6----|
|--x----x-x----x----x-x----x----x----x----x-x----x----x-x----x----x----x----|
|--4----4-4----4----4-4----4----4----4----4-4----4----4-4----4----4----4----|
|--5----5-5----5----5-5----5----5----5----5-5----5----5-5----5----5----5----|


__can be played by one or two guitars_______________________________________
|---------------------------------------------------------------------------|
|---------------------------------------------------------------------------|
|-----------------6---6^5---5------------------4---4^3---3------------------|
|---------------------------------------------------------------------------|
|----------4/6------6------------6-6-6----4------4--------------------------|
|----------2/4------------4------4-4-4----2------------2--------------------|

|---------------------------------------------------------------------------|
|---------------------------------------------------------------------------|
|--------------6---6---6--6-------------------------6---6---6--6------------|
|--7-7-7-7-----6---6---6--6-2-4-4-2-4----7-7-7------6---6---6--6--2-4-4-2-4-|
|--7-7-7-7-----4---4---4--4-2-4-4-2-4----7-7-7------4---4---4--4--2-4-4-2-4-|
|--5-5-5-5---0--------------0-2-2-0-2----5-5-5----0---------------0-2-2-0-2-|


|----------------------------------------------------------------------------|
|----------------------------------------------------------------------------|
|-------------6---6---6--6-------------------------6---6---6--6--------------|
|---7-7-7-----6---6---6--6-2-4-4-2-4----7-7-7------6---6---6--6---4~~~~~~~~~-|
|---7-7-7-----4---4---4--4-2-4-4-2-4----7-7-7------4---4---4--4---4~~~~~~~~~-|
|---5-5-5---0--------------0-2-2-0-2----5-5-5----0----------------2~~~~~~~~~-|

       P.M.        P.M.       P.M.       P.M.        P.M.       P.M.
|---------------------------------------------------------------------------|
|---------------------------------------------------------------------------|
|--6----6-6----6----6-6----6----6----6----6-6----6----6-6----6----6----6----|
|--x----x-x----x----x-x----x----x----x----x-x----x----x-x----x----x----x----|
|--4----4-4----4----4-4----4----4----4----4-4----4----4-4----4----4----4----|
|---------------------------------------------------------------------------|

        P.M.        P.M.       P.M.       P.M.        P.M.       P.M.
|---------------------------------------------------------------------------|
|---------------------------------------------------------------------------|
|--6----6-6----6----6-6----6----6----6----6-6----6----6-6----6----6----6----|
|--x----x-x----x----x-x----x----x----x----x-x----x----x-x----x----x----x----|
|--4----4-4----4----4-4----4----4----4----4-4----4----4-4----4----4----4----|
|--5----5-5----5----5-5----5----5----5----5-5----5----5-5----5----5----5----|

|---------------------------------------------------------------------------|
|---------------------------------------------------------------------------|
|-----------------6---6^5---5------------------4---4^3---3------------------|
|---------------------------------------------------------------------------|
|----------4/6------6------------6-6-6----4------4--------------------------|
|----------2/4------------4------4-4-4----2------------2--------------------|


|---------------------------------------------------------------------------|
|---------------------------------------------------------------------------|
|--------------6---6---6--6-------------------------6---6---6--6------------|
|--7-7-7-7-----6---6---6--6-2-4-4-2-4----7-7-7------6---6---6--6--2-4-4-2-4-|
|--7-7-7-7-----4---4---4--4-2-4-4-2-4----7-7-7------4---4---4--4--2-4-4-2-4-|
|--5-5-5-5---0--------------0-2-2-0-2----5-5-5----0---------------0-2-2-0-2-|

__first part of the solo plays behind this__________________________________
|---------------|-----------------------------------------------------------|
|---------------|-----------------------------------------------------------|
|--4---4^3---3--|--6-6-6-6....-------------6-6-6-6....----------------------|
|---------------|--6-6-6-6....-7-7-7-7....-6-6-6-6....-7-7-7-7....----------|
|----4----------|--4-4-4-4....-7-7-7-7....-4-4-4-4....-7-7-7-7....----------|
|----------2----|--------------5-5-5-5....-------------5-5-5-5....----------|


__play this till the end while 2nd g. keeps on playing solo_________________
|---------------------------------------------------------------------------|
|---------------------------------------------------------------------------|
|--------------6---6---6--6-------------------------6---6---6--6------------|
|--7-7-7-7-----6---6---6--6-2-4-4-2-4----7-7-7------6---6---6--6--2-4-4-2-4-|
|--7-7-7-7-----4---4---4--4-2-4-4-2-4----7-7-7------4---4---4--4--2-4-4-2-4-|
|--5-5-5-5---0--------------0-2-2-0-2----5-5-5----0---------------0-2-2-0-2-|


__Solo______________________________________________________________________
|-----------------------------9-9----7-5----------------------------9-9-----|
|---------------------6-7--9----------------9-7-6----6------6-7--9----------|
|--6-6-6-6-6-6-6-6-------------------------------------6--------------------|
|---------------------------------------------------------------------------|
|---------------------------------------------------------------------------|
|---------------------------------------------------------------------------|

|--7-5-----------0b-----------------------------0b--------------------------|
|---------5-5-5--7b--5----6--6-4--5-6----5-5-5--7b----6--6----------5-5-5---|
|----------------------------------------------------------4-5-6------------|
|---------------------------------------------------------------------------|
|---------------------------------------------------------------------------|
|---------------------------------------------------------------------------|

|---------7-------------------------4---------------------------------------|
|--7-5-7b---9--7--7>5>7--5----5-5-5---5-7-5---------------------------------|
|----------------------------------------------6--6-------------------------|
|----------------------------------------------------6--5--4----7-7-7-------|
|---------------------------------------------------------------7-7-7-------|
|---------------------------------------------------------------5-5-5-------|


__then play this several times______________________________________________
|---------------------------------------------------------------------------|
|--8b---8b--8-7-----8b---8b--8-7----....------------------------------------|
|---------------6----------------6--....------------------------------------|
|---------------------------------------------------------------------------|
|---------------------------------------------------------------------------|
|---------------------------------------------------------------------------|


__let ring__________________________________________________________________
|---------------------------------------------------------------------------|
|--10b---10b--9-11-10----9--8--7--5~~~~~~~~~~~~~----------------------------|
|---------------------------------------------------------------------------|
|---------------------------------------------------------------------------|
|---------------------------------------------------------------------------|
|---------------------------------------------------------------------------|


        P.M.        P.M.       P.M.       P.M.        P.M.       P.M.
|---------------------------------------------------------------------------|
|---------------------------------------------------------------------------|
|--6----6-6----6----6-6----6----6----6----6-6----6----6-6----6----6----6----|
|--x----x-x----x----x-x----x----x----x----x-x----x----x-x----x----x----x----|
|--4----4-4----4----4-4----4----4----4----4-4----4----4-4----4----4----4----|
|---------------------------------------------------------------------------|


__to the end play this clean and a bit more melodic(with pull-ups etc.)_____
|---------------------------------------------------------------------------|
|---------------------------------------------------------------------------|
|-----------------6---6^5---5------------------4---4^3---3------------------|
|-------------------------------------------------------------    END    ---|
|----------4/6------6------------6-6-6----4------4--------------------------|
|----------2/4------------4------4-4-4----2------------2--------------------|

          all corrections are welcome (for instance: the f****ng solo
                               or the tuning!)
                           please vote this tab!


tabbed by Flo Weber
Добавлено: 29.06.2012
Другие материалы по этой песне:
  • Аккорды и текст

Страница создана 29.06.2012
http://primanota.ru/beatsteaks/mirrores-chords.htm
Привет, Гость.
Предлагаем пройти революционный курс по гитаре.
Подарок от PrimaNota.Ru, забирай!