PrimaNota.ru - самый крупный в мире бесплатный архив песенных текстов, аккордов, табулатур и нот


Beach House - Rough Song - аккорды и текст, видео

Регистрация Запомнить меня
Войти через:  Facebook Google Twitter Vk Yandex Mail.ru

Beach House - Rough Song - аккорды и текст, видео

Печатать
Просмотров: 57
Авторы: Beach House

Rough Song
Beach House
-------------------------------------------------------------------------------
                             Beach House - Rough Song
-------------------------------------------------------------------------------
Tabbed by:majorseventh
E-mail:cwarner3000@gmail.com

Tuning:EADGBe

I use fingers to pluck strings instead of strumming with pick and play the chords like this. 

CHORDS FOR VERSES 1,2 &3
    G         C6               D     Em
e|---------------------------------------------------------------------------|
B|--12-12-12--10-10-10-10-10--5-5-5--5-5-5-5-5-------------------------------|
G|--0--0--0---0--0--0--0--0---5-5-5--4-4-4-4-4-------------------------------|
D|----------------------------0-0-0------------------------------------------|
A|--10-10-10-----------------------------------------------------------------|
E|------------8--8--8--8--8----------0-0-0-0-0-------------------------------|

or like this
    G      C6         D      Em
e|--7-7-7--5-5-5-5-5--2-2-2--0-0-0-0-0---------------------------------------|
B|--------------------3-3-3--0-0-0-0-0---------------------------------------|
G|--0-0-0--0-0-0-0-0---------------------------------------------------------|
D|--5-5-5-------------0-0-0--2-2-2-2-2---------------------------------------|
A|---------3-3-3-3-3---------------------------------------------------------|
E|---------------------------------------------------------------------------|



CHORDS FOR BRIDGE and OUTRO (heard best at 3:35)
    G         C6              D         Em
e|---------------------------------------------------------------------------|
B|--12-12-12--12-12-12-10-10--10-10-10--12-12-12-12-12-----------------------|
G|--0--0--0---0--0--0--0--0---0--0--0---0--0--0--0--0------------------===---|
D|---------------------------------------------------------------------------|
A|--10-10-10-----------------------------------------------------------------|
E|------------8--8--8--8--8---10-10-10--12-12-12-12-12-----------------------|



VERSE 1
       G  C6         D  Em
In the middle of the party
        G  C6      D  Em
Found a hole to be sorry
            G  C6         D  Em
Through the glass drank a memory
       G  C6  D  Em
of her face


VERSE 2
        G  C6        D  Em
All the charm in the evening
 G  C6       D  Em
Peridot television
 G  C6    D  Em
Loveless another
 G  C6       D  Em
Daughter and mother


Bridge
 G            C6                   D            Em
Shut the door she'll have no more another vodka cocktail party
 G        C6              D         Em
Her story unravels like a ribbon in the windy distance


VERSE 3
 G  C6           D  Em
Schoolgirls were praying
 G  C6        D  Em
Lace curtains fading
 G  C6      D  Em
Fern of the forest
 G  C6   D  Em
Dearly beloved


BRIDGE  
 G           C6                  D                Em
Hard to hear she spit on you and made your bloody nose more bloody
 G            C6                  D          Em
Shut the door she'll have no more another vodka cocktail party


OUTRO
G         C6

D         Em
Totems in the night
  G       C6  
I want to forget
D         Em
All that wasn't right
 G        C6       
I need to leave it

D         Em
Totems in the night
  G       C6  
I want to forget
D         Em
All that wasn't right
 G        C6       
I need to leave it

D         Em
Totems in the night
  G       C6  
I want to forget
D         Em
All that wasn't right
  G       C6  
She needs to leave it





************************************

| /   slide up
| \   slide down
| h   hammer-on
| p   pull-off
| ~   vibrato
| +   harmonic
| x   Mute note
| b   Bend
| pb  Pre-bend
| br  Bend release
| pbr Pre-bend release
| brb Bend release bend

************************************
Добавлено: 01.05.2016
Другие материалы по этой песне:
  • Аккорды и текст

Страница создана 01.05.2016
http://primanota.ru/beach-house/rough-song-chords.htm
Привет, Гость.
Предлагаем пройти революционный курс по гитаре.
Подарок от PrimaNota.Ru, забирай!