PrimaNota.ru - самый крупный в мире бесплатный архив песенных текстов, аккордов, табулатур и нот


Beach House - Ppp - таба, видео

Регистрация Запомнить меня
Войти через:  Facebook Google Twitter Vk Yandex Mail.ru

Beach House - Ppp - таба, видео

Печатать
Просмотров: 81
Уроки эстрадного вокала в Санкт-Петербурге
Авторы музыки: Alex Scally, Victoria Legrand
Авторы текста: Victoria Legrand
-------------------------------------------------------------------------------
                             PPP - Beach House
-------------------------------------------------------------------------------
Tabbed by: markiiitu
E-mail: marcolucio27@gmail.com

Tuning: Standard

e|--11-------11--------|--9-------9--------|--13-------13--------|--11-------11--------|
B|-----11-------11-----|----11------11-----|-----13-------13-----|-----13-------13-----|
G|--------11-------11--|-------11------11--|--------13-------13--|--------13-------13--|
D|---------------------|-------------------|---------------------|---------------------|
A|---------------------|-------------------|---------------------|---------------------|
E|---------------------|-------------------|---------------------|---------------------|

e|--14-------14--------|--13-------13--------|--11-------11--------|--9-------9--------|
B|-----14-------14-----|-----13-------13-----|-----11-------11-----|----11------11-----|
G|--------15-------15--|--------13-------13--|--------11-------11--|-------11------11--|
D|---------------------|---------------------|---------------------|-------------------|
A|---------------------|---------------------|---------------------|-------------------|
E|---------------------|---------------------|---------------------|-------------------|

e|--8-----8------|--9-----9------|--11-----11------|---------------|
B|----9-----9----|----9-----9----|-----9------9----|--9---9---9----|
G|------8-----8--|------8-----8--|-------8------8--|----8---8---8--|
D|---------------|---------------|-----------------|---------------|
A|---------------|---------------|-----------------|---------------|
E|---------------|---------------|-----------------|---------------|

e|-----------------|---------------|---------------|------------|
B|--9------9-------|--7-----7------|--6-----6------|------------|
G|----8------8-----|----6-----6----|----5-----5----|--6--8--10--|
D|------10-----10--|------8-----8--|------6-----6--|------------|
A|-----------------|---------------|---------------|------------|
E|-----------------|---------------|---------------|------------|

************************************

| /   slide up
| \   slide down
| h   hammer-on
| p   pull-off
| ~   vibrato
| +   harmonic
| x   Mute note
| b   Bend
| pb  Pre-bend
| br  Bend release
| pbr Pre-bend release
| brb Bend release bend

************************************
Добавлено: 26.10.2015
Другие материалы по этой песне:
  • Аккорды и текст

Страница создана 26.10.2015
http://primanota.ru/beach-house/ppp-chords.htm
Привет, Гость.
Предлагаем пройти революционный курс по гитаре.
Подарок от PrimaNota.Ru, забирай!