PrimaNota.ru - самый крупный в мире бесплатный архив песенных текстов, аккордов, табулатур и нот


Beach House - Bluebird - таба, видео

Регистрация Запомнить меня
Войти через:  Facebook Google Twitter Vk Yandex Mail.ru

Beach House - Bluebird - таба, видео

Печатать
Просмотров: 45
Уроки эстрадного вокала в Санкт-Петербурге
-------------------------------------------------------------------------------
                             Bluebird - Beach House
-------------------------------------------------------------------------------
Tabbed by:majorseventh
E-mail:cwarner3000@gmail.com

Tuning:standard EADGBe
Chords
Am    X02210
G     3X0003
Fmaj7 1X2210
Em7   022030
G6    320000
C     X32010


Intro - Guitar and Keyboard combined


    Am              G              Fmaj7                Em7
e|--5---0---3---5---3---------------0-------------------/7----5---3----------|
B|----------------------3---1---3-----------0---1---3------------------------|
G|----2---2---2---2---0---0---0---0-----2-------------0-----0---0---0--------|
D|------------------------------------2---2---2---2------0-------------------|
A|--0------------------------------------------------------------------------|
E|------------------3---------------1---------------0------------------------|

   Fmaj7            G               Am                   G
e|--5---0---3---5---3---------------0-------------------/7----5---3----------|
B|----------------------3---1---3-----------0---1---3------------------------|
G|----2---2---2---2---0---0---0---0-----2-------------0-----0---0---0--------|
D|--3---------------------------------2---2---2---2------0-------------------|
A|----------------------------------0----------------------------------------|
E|------------------3-------------------------------3------------------------|

    Am              G              Fmaj7                Em7
e|--5---0---3---5---3---------------0-------------------/7----5---3----------|
B|----------------------3---1---3-----------0---1---3------------------------|
G|----2---2---2---2---0---0---0---0-----2-------------0-----0---0---0--------|
D|------------------------------------2---2---2---2------0-------------------|
A|--0------------------------------------------------------------------------|
E|------------------3---------------1---------------0------------------------|

   Fmaj7            G               Am                   G
e|--5---0---3---5---3---------------0-------------------/7----5---3----------|
B|----------------------3---1---3-----------0---1---3------------------------|
G|----2---2---2---2---0---0---0---0-----2-------------0-----0---0---0--------|
D|--3---------------------------------2---2---2---2------0-------------------|
A|----------------------------------0----------------------------------------|
E|------------------3-------------------------------3------------------------|




Am             G          Em7
Love, it comes up, On the ceiling
   Am              G             Em7
My mouth and these arms hold the feeling

     Am         G       Em7
Even I can't control my nature



(With Guitar fill 1)
   Am           G      Fmaj7          G6 C G6
If there should come a match before you
  Am        G    Fmaj7          G6 
I would not ever try to capture you

    Am G Fmaj7            G6
Bluebird, where you gonna go now?



(With Guitar fill 2)
   Am   G      Fmaj7
We flee to the gallows
     Am             G          Fmaj7
Then I caught up my eye there's something

    Am          G         Fmaj7
Its boat led me back from nothing, from nothing
   Am           G              Fmaj7   G6 C G6
If there should come a match before you
 Am         G    Fmaj7          G6 C G6
I would not ever try to capture you


    Am G  Fmaj7           G6     C G6
Bluebird, where you gonna go now?
       Am G  Fmaj7            G6     
Things change before they are over...(then play intro riff again)

before they are over

  
Guitar Fill 1
    Am                      G          Fmaj7

e|-----12----12----12----12----10----10----10----10----12----12----12----12--|
B|--------13----------13----------12----------12----------10----------10-----|
G|--14----------14----------12----------12----------10----------10-----------|
D|---------------------------------------------------------------------------|
A|---------------------------------------------------------------------------|
E|---------------------------------------------------------------------------|
                            G6                                  C
e|-----12----12----12----12----12----12----12----12----12----12---12----12---|
B|--------10----------10----------12----------12----------12---------13------|
G|--10----------10----------12----------12----------12---------12------------|
D|---------------------------------------------------------------------------|
A|---------------------------------------------------------------------------|
E|---------------------------------------------------------------------------|
    G6
e|-----12----12---12----12----12----12----12----12---------------------------|
B|--------12---------12----------12----------12------------------------------|
G|--12---------12----------12----------12------------------------------------|
D|---------------------------------------------------------------------------|
A|---------------------------------------------------------------------------|
E|---------------------------------------------------------------------------|




Guitar Fill 2
e|--12------12----------12---------------------------------------------------|
B|---------------------------------------------------------------------------|
G|-------14------12--14-------14---------------------------------------------|
D|----14------14-----14----14------------------------------------------------|
A|---------------------------------------------------------------------------|
E|---------------------------------------------------------------------------|
      PM      PM           PM


************************************

| /   slide up
| \   slide down
| h   hammer-on
| p   pull-off
| ~   vibrato
| +   harmonic
| x   Mute note
| b   Bend
| pb  Pre-bend
| br  Bend release
| pbr Pre-bend release
| brb Bend release bend

************************************
Добавлено: 25.05.2016
Другие материалы по этой песне:

Страница создана 25.05.2016
http://primanota.ru/beach-house/bluebird-chords.htm
Привет, Гость.
Предлагаем пройти революционный курс по гитаре.
Подарок от PrimaNota.Ru, забирай!