PrimaNota.ru - самый крупный в мире бесплатный архив песенных текстов, аккордов, табулатур и нот


Beach House - Elegy To The Void - таба, видео

Регистрация Запомнить меня
Войти через:  Facebook Google Twitter Vk Yandex Mail.ru

Beach House - Elegy To The Void - таба, видео

Печатать
Просмотров: 38
Авторы: Beach House

-------------------------------------------------------------------------------
                     ELEGY TO THE VOID - Beach House
-------------------------------------------------------------------------------
Tabbed by: markiiitu
E-mail: marcolucio27@gmail.com

Tuning: Standard

[3:30]
e|--11----11--|--14------|--11-----------|-----------------|
B|------------|----------|-----14-14-----|--(14)-14--14----|
G|------------|----------|---------------|-----------------|
D|------------|----------|---------------|-----------------|
A|------------|----------|---------------|-----------------|
E|------------|----------|---------------|-----------------|

e|------------|----------|---------------|-----------------|
B|------------|----------|---------------|-----------------|
G|--12-13-----|----------|---------------|-----------------|
D|------------|--11-13---|--13-----------|--(13)-----------|
A|------------|----------|---------------|-----------------|
E|------------|----------|---------------|-----------------|

e|--11----11--|--14------|--11-----------|-----------------|
B|------------|----------|-----14-14-----|--(14)-14--14----|
G|------------|----------|---------------|-----------------|
D|------------|----------|---------------|-----------------|
A|------------|----------|---------------|-----------------|
E|------------|----------|---------------|-----------------|

e|------------|----------|---------------|-----------------|
B|------------|----------|---------------|-----------------|
G|--12-13-----|----------|---------------|-----------------|
D|------------|--11-13---|--10-10-10-10--|--(10)-----------|
A|------------|----------|---------------|-----------------|
E|------------|----------|---------------|-----------------|

************************************

| /   slide up
| \   slide down
| h   hammer-on
| p   pull-off
| ~   vibrato
| +   harmonic
| x   Mute note
| b   Bend
| pb  Pre-bend
| br  Bend release
| pbr Pre-bend release
| brb Bend release bend

************************************
Добавлено: 25.05.2016
Вам также может быть интересно:
Другие материалы по этой песне:

Страница создана 25.05.2016
http://primanota.ru/beach-house/elegy-to-void-chords.htm
Привет, Гость.
Предлагаем пройти революционный курс по гитаре.
Подарок от PrimaNota.Ru, забирай!