PrimaNota.ru - самый крупный в мире бесплатный архив песенных текстов, аккордов, табулатур и нот


Beach House - Common Girl - таба, видео

Регистрация Запомнить меня
Войти через:  Facebook Google Twitter Vk Yandex Mail.ru

Beach House - Common Girl - таба, видео

Печатать
Просмотров: 41
Авторы: Beach House

-------------------------------------------------------------------------------
                             Common Girl - Beach House
-------------------------------------------------------------------------------
Tabbed by:majorseventh
E-mail:cwarner3000@gmail.com

Tuning:Standard EADGBe
INTRO
    A6
e|---------------------------------------------------------------------------|
B|----7------7------7------7-------------------------------------------------|
G|---6-6-6--6-6-6--6-6-6--6-6-6-----------------------------------------------|
D|--7---7--7---7--7---7--7---7-----------------------------------------------|
A|---------------------------------------------------------------------------|
E|---------------------------------------------------------------------------|

VERSE
    A6            G      Bm     A6            G      Bm
e|---------------------------------------------------------------------------|
B|----7------7------3------3------7------7------3------3---------------------|
G|---6-6-6--6-6-6--4-4-4--4-4-4--6-6-6--6-6-6--4-4-4--4-4-4------------------|
D|--7---7--7---7--5---5--4---4--7---7--7---7--5---5--4---4-------------------|
A|---------------------------------------------------------------------------|
E|---------------------------------------------------------------------------|

CHORUS
    F#m           B             D             A
e|----5------5------7------7------5------5------5------5---------------------|
B|---7-7-7--7-7-7--7-7-7--7-7-7--7-7-7--7-7-7--5-5-5--5-5-5------------------|
G|--6---6--6---6--8---8--8---8--7---7--7---7--6---6--6---6-------------------|
D|---------------------------------------------------------------------------|
A|---------------------------------------------------------------------------|
E|---------------------------------------------------------------------------|

OUTRO
    E             D             Bm            C#m
e|---------------------------------------------------------------------------|
B|----9------9------7------7------7------7-------9--------9------------------|
G|---9-9-9--9-9-9--7-7-7--7-7-7--7-7-7--7-7-7---9-9--9---9-9--9--------------|
D|--9---9--9---9--7---7--7---7--9---9--9---9--11---11--11---11---------------|
A|---------------------------------------------------------------------------|
E|---------------------------------------------------------------------------|
 
    E             D             Bm            C#m
e|---------------------------------------------------------------------------|
B|----9------9------7------7------7------7-------9--------9------------------|
G|---9-9-9--9-9-9--7-7-7--7-7-7--7-7-7--7-7-7---9-9--9---9-9--9--------------|
D|--9---9--9---9--7---7--7---7--9---9--9---9--11---11--11---11---------------|
A|---------------------------------------------------------------------------|
E|---------------------------------------------------------------------------|
    E             D      A6     G      Bm     A6            G      Bm
e|---------------------------------------------------------------------------|
B|----9------9------7------7------3------3------7------7------3------3-------|
G|---9-9-9--9-9-9--7-7-7--6-6-6--4-4-4--4-4-4--6-6-6--6-6-6--4-4-4--4-4-4----|
D|--9---9--9---9--7---7--7---7--5---5--4---4--7---7--7---7--5---5--4---4-----|
A|---------------------------------------------------------------------------|
E|---------------------------------------------------------------------------|

    A6            G      Bm     A6            G      Bm
e|---------------------------------------------------------------------------|
B|----7------7------3------3------7------7------3------3---------------------|
G|---6-6-6--6-6-6--4-4-4--4-4-4--6-6-6--6-6-6--4-4-4--4-4-4------------------|
D|--7---7--7---7--5---5--4---4--7---7--7---7--5---5--4---4-------------------|
A|---------------------------------------------------------------------------|
E|---------------------------------------------------------------------------|

    A6            G      Bm     A6            G      Bm     A6
e|---------------------------------------------------------------------------|
B|----7------7------3------3------7------7------3------3-----7---------------|
G|---6-6-6--6-6-6--4-4-4--4-4-4--6-6-6--6-6-6--4-4-4--4-4-4--6---------------|
D|--7---7--7---7--5---5--4---4--7---7--7---7--5---5--4---4---7---------------|
A|-----------------------------------------------------------0---------------|
E|---------------------------------------------------------------------------|




"Common Girl"
VERSE
A6
G           Bm           A6
You used to live in this part of town
G     Bm      A6
Until you hit the ground
G         Bm               A6
She makes movies where she cries on cue
G         Bm        A6
She still lives downtown

CHORUS
F#m      B
But it's ok
            D      A
Cause she's common anyway
F#m                     B
And the streets are all filled
         D                      A
With the strangers, who pay the bills

VERSE
A6
G         Bm           A6
She's the one with the lazy eye
G         Bm         A6
Promises never come filled
G         Bm                  A6
Takes the pills and hides the notices
G        Bm          A6
Cartoon rings of ill will

CHORUS
F#m      B
But it's ok
            D          A
Cause she's common in every way
F#m                     B
And the streets are all filled
         D                      A
With the strangers, who pay the bills

OUTRO
E      D              Bm 
Nobody special done a good thing
       C#m
For somebody else
E           D            Bm         
Taking advantage of that good thing
      C#m
For nobody else

E  D  A6

G         Bm         A6
oooh oooh oooh oo oo oh
G         Bm         A6
oooh oooh oooh oo oo oh









************************************

| /   slide up
| \   slide down
| h   hammer-on
| p   pull-off
| ~   vibrato
| +   harmonic
| x   Mute note
| b   Bend
| pb  Pre-bend
| br  Bend release
| pbr Pre-bend release
| brb Bend release bend

************************************
Добавлено: 25.05.2016
Другие материалы по этой песне:

Страница создана 25.05.2016
http://primanota.ru/beach-house/common-girl-chords.htm
Привет, Гость.
Предлагаем пройти революционный курс по гитаре.
Подарок от PrimaNota.Ru, забирай!