PrimaNota.ru - самый крупный в мире бесплатный архив песенных текстов, аккордов, табулатур и нот


Aurora - Do or die - таба, видео

Регистрация Запомнить меня
Войти через:  Facebook Google Twitter Vk Yandex Mail.ru

Aurora - Do or die - таба, видео

Печатать
Просмотров: 96


SONG: DO OR DIE
BAND: AURORA
TABBED BY AURORA FAN1

~ let ring
x palm mute
/ slide up
 slide down

INTRO:

E|-----------------------|-----------------------|
B|-----------------------|-----------------------|
G|-----------------------|-----------------------|
D|-----------------------|-----------------------|
A|-----------------------|--0-0--3-3--0-0--3-3---|
E|--0-0--3-3--0-0--3-3---|-----------------------|

E|-----------------------|-----------------------|
B|-----------------------|-----------------------|
G|-----------------------|-----------------------|
D|-----------------------|-----------------------|
A|-----------------------|--0-0--3-3--0~---------|
E|--0-0--3-3--0-0--3-3---|-----------------------|

VERSE ONE:

GUITAR

E|---------------------|---------------------|
B|---------------------|---------------------|
G|---------------------|---------------------|
D|---------------------|---------------------|
A|--1-1-1-1--2-2-2-2---|--3-3-3-3--2-2-2-2---|
E|--0-0-0-0--0-0-0-0---|--0-0-0-0--0-0-0-0---|

BASS CONTINUES TO PLAY INTRO

CHORUS:

GUITAR

E|---------------------|-----------------------|
B|---------------------|-----------------------|
G|---------------------|-----------------------|
D|---------------------|-----------------------|
A|--2-2-2-2--3-3-3-3---|--2-2-2-2--1-1-1-1-----|
E|---------------------|-----------------------|

BASS

G|-----------------------|-----------------------|
D|-----------------------|-----------------------|
A|-----------------------|-----------------------|
E|--0-0--3-3--0-0--3-3---|--0-0--3-3--0-0--3-3---|


VERSE TWO:


GUITAR PLAYS SAME AS VERSE 1

BASS PLAYS SAME AS CHORUS


BASS SOLO:

G|------------------|------------------|
D|------------------|------------------|
A|------------------|------------------|
E|--3-3-x-3-3-3-3---|--2-2-x-2-2-2-2---|

G|------------------|------------------|
D|------------------|------------------|
A|------------------|------------------|
E|--1-1-x-1-1-1-1---|--112~-----------|


CHORUS REPEAT

OUTTRO:

INTRO WITH FADE

Добавлено: 07.12.2013
Другие материалы по этой песне:
  • Аккорды и текст

Страница создана 07.12.2013
http://primanota.ru/aurora/do-or-die-chords.htm
Привет, Гость.
Предлагаем пройти революционный курс по гитаре.
Подарок от PrimaNota.Ru, забирай!