PrimaNota.ru - самый крупный в мире бесплатный архив песенных текстов, аккордов, табулатур и нот


Aurora - Holiday - бас-таба, видео

Регистрация Запомнить меня
Войти через:  Facebook Google Twitter Vk Yandex Mail.ru

Aurora - Holiday - бас-таба, видео

Печатать
Просмотров: 93


OK, so not technically an AURORA song, but there are some changes when they
perform it live to the Green Day original.

Verse
|-------------------|
|-------------------|
|--88--44------666--|
|----------44-------| x3

|-------------------|
|-------------------|
|--88--44------333--|
|----------44-------| x1

|----------------------------------|
|----------------------------------|
|--88--44------666--33-333-33-333--|
|----------44----------------------| x1

|-------------------|
|-------------------|
|--88--44------666--|
|----------44-------| x1

|-------------------|
|-------------------|
|--88--44------333--|
|----------44-------| x1

|-------------------|
|-------------------|
|--88--44------666--|
|----------44-------| x1

|-------------------|
|-------------------|
|--33-333-33-333----|
|-------------------| x1

Chorus
|----------------------------------|
|----------------------------------|
|---------44-444---------66-6666---|
|--11-111--------44-4444-----------|

|----------------------------------|
|----------------------------------|
|---------44-444--------33-333-3---|
|--11-111--------44-444------------| x1

Verse
|--------------------|
|--------------------|
|--88--44------666---|
|----------44--------|

|--------------------|
|--------------------|
|--88--44------333---|
|----------44--------|

|--------------------|
|--------------------|
|--88--44------666---|
|----------44--------|

|--------------------|
|--------------------|
|--33-333-33-333-----|
|--------------------| x2

Chorus x1

Bridge
|------------------------------------------|
|---------------1-------------1---3--------|
|-----------4-1---3-------------3---3----|
|--1-1-34-4----------1-1-34-4--------------| x2

|---------------------------|
|---------------------------|
|--44-444----------33-333---|
|----------44-444-----------|

|-----------------------------------|
|-----------------------------------|
|--88--66--44-444----------33-333---|
|------------------44-444-----------|

|------------------------------------|
|------------------------------------|
|--33-333--2--3-3-3-3-3-3-3-3-3-3---|
|------------------------------------| x1

Bass Solo

|------------------------------------------|
|---------------1-------------1---3--------|
|-----------4-1---3-------------3---3----|
|--1-1-34-4----------1-1-34-4--------------| x6

|------------------------------------------|
|------------------------------------------|
|--33333333--333333333-------------------|
|------------------------------------------| x1

Chorus x1

Ending
|--------------------|
|--------------------|
|--88--44------666---|
|----------44--------| x3

|-----------------------|
|---------------3-------|
|--88--44--63----------|
|------------------1~---| x1

Tabbed by Auroraman111

Добавлено: 11.02.2014
Другие материалы по этой песне:
  • Аккорды и текст

Страница создана 11.02.2014
http://primanota.ru/aurora/holiday-chords.htm
Привет, Гость.
Предлагаем пройти революционный курс по гитаре.
Подарок от PrimaNota.Ru, забирай!