PrimaNota.ru - самый крупный в мире бесплатный архив песенных текстов, аккордов, табулатур и нот


Aurora - Thank you for the venom - таба, видео

Регистрация Запомнить меня
Войти через:  Facebook Google Twitter Vk Yandex Mail.ru

Aurora - Thank you for the venom - таба, видео

Печатать
Просмотров: 69


Thank You For The Venom


Intro

Jamie Byram

e|--------------------------------------------------------------------|
B|--------------------------------------------------------------------|
G|--------------------------------------------------------------------|
D|---4----------------0h2------------------2---4---5-----2-----4------|
A|---2--2-4-5-2-4---------4-5-4-2-------------------------------------|
E|----------------2-3-------------3-2--0-0---0---0---0-0---0-0--------|
PM      . . . . . . .     . . . . . .  . .   .   .   . .   . .
e|--------------------------------------------------------------------|
B|--------------------------------------------------------------------|
G|--------------------0h2---------------------------------------------|
D|---4----------------------5---4---2-----2---4---5-----2----4--------|
A|---2--2-4-5-2-4-----------------------------------------------------|
E|----------------2-3-----0---0---0---0-0---0---0---0-0---0-0---------|
PM      . . . . . . .     .   .   .   . .   .   .   . .   . .

Aran Noden

e|-------------------------------------------------------------------|
B|-------------------------------------------------------------------|
G|---7-7-7-7-7-7-7-7-6-6-6-6-7-7-7-7-7-7-7-7-9-9-9-9-11-11-11-11-----|
D|---9-9-9-9-9-9-9-9-9-9-9-9-9-9-9-9-9-9-9-9-9-9-9-9-9--9--9--9------|
A|-------------------------------------------------------------------|
E|-------------------------------------------------------------------|

e|-------------------------------------------------------------------|
B|-------------------------------------------------------------------|
G|---7-7-7-7-7-7-7-7-6-6-6-6-12-12-12-12-12/11-11-7-7-7-7-7/6-6------|
D|---9-9-9-9-9-9-9-9-9-9-9-9-9--9--9--9--9--9--9--9-9-9-9-9-9-9------|
A|-------------------------------------------------------------------|
E|-------------------------------------------------------------------|

e|--------------|
B|--------------|
G|---7-(16x)----|
D|---9----------|
A|--------------|
E|--------------|
PM   .

Verse

Both guitars play the same

e|-----------------------------------------------------------|
B|-----------------------------------------------------------|
G|-----------------------------7-7-7-7-7-9-6-6-6-6-6-6-6-6---|
D|-----------------------------x-x-x-x-x-x-x-x-x-x-x-x-x-x---|
A|---4-4-4-4-4-5--4-4-4-4-4-5--5-5-5-5-5-7-4-4-4-4-4-4-4-4---|
E|---2-2-2-2-2-3--2-2-2-2-2-3--------------------------------|

e|--------------------------------------------------------------|
B|--------------------------------------------------------------|
G|-----------------9-9-9-9-11-11------------------------11-11---|
D|---4-4-4--4-4-4--x-x-x-x-x--x---4-4-4--4-4-4--9-9-9-9-x--x----|
A|---2-2-2--2-2-2--7-7-7-7-9--9---2-2-2--2-2-2--7-7-7-7-9--9----|
E|--------------------------------------------------------------|

e|--------------------------------------------------|
B|--------------------------------------------------|
G|--------------------------------------------------| PM
D|---4-4-4-4-4-4-4-4--7-9---4-4-4-4-4-4-4-4--7-9----| second
A|---2-2-2-2-2-2-2-2--5-7---2-2-2-2-2-2-2-2--5-7----| time
E|--------------------------------------------------| round

Pre-Chorus

e|----------------------------------------------------------------------------|
B|----------------------------------------------------------------------------|
G|----------------------------------------------------------------------------|
D|----------------------------------------------------------------------------|
A|---5-5-5-5-5-5-5-5-7-7-7-7-9-9-9-9-9-9-9-9-9-9-9-9-11-11-11-11-12-12-12-12--|
E|---3-3-3-3-3-3-3-3-5-5-5-5-7-7-7-7-6-6-6-6-6-6-6-6--9--9--9--9-10-10-10-10--|

e|----------------------------------------------------------------------|
B|----------------------------------------------------------------------|
G|----------------------------------------------------------------------|
D|----------------------------------------------------------------------|
A|---5-5-5-5-5-5-5-5-5-5-5-5-5-5-5-5-7-7-7-7-7-7-7-7-7-7-7-7-7-7-7-7----|
E|---3-3-3-3-3-3-3-3-3-3-3-3-3-3-3-3-5-5-5-5-5-5-5-5-5-5-5-5-5-5-5-5----|

Chorus

Jamie Byram

e|--------------------------------------------|
B|--------------------------------------------|
G|--------------------------------------------|
D|---12--------11--------9---------5----------|
A|---x--(16x)--x--(16x)--x--(16x)--x--(16x)---|
E|---10--------9---------7---------3----------|

Aran Noden

e|--------------------------------------------|
B|--------------------------------------------|
G|---7--------7--------4----------------------|
D|---7-(16x)--7-(16x)--4-(16x)-5--------------|
A|---5--------4--------2-------5-(16x)--------|
E|-----------------------------3--------------|

After Second Chorus

e|--------------------------------|
B|--------------------------------|
G|--------------------------------|
D|---4--x--4p0-4p0-4p0-4p0-4p0----|
A|---2--x-------------------------|
E|--------------------------------|

Jamie

e|------------------------------------------------------------------------|
B|------------------------------------------------------------------------|
G|---4-4-4-4-4-4-4-4-4-4-4-4-4-4-6-6-6-6-7-7-7-7-7-7-7-7-6-6-6-6-6-6-6-6--|
D|------------------------------------------------------------------------|
A|------------------------------------------------------------------------|
E|------------------------------------------------------------------------|

e|------------------------------------------------------------------------|
B|------------------------------------------------------------------------|
G|---6-6-6-6-6-6-6-6-6-6-6-6-6-6-7-7-7-7-9-9-9-9-9-9-9-9-7-7-7-7-7-7-7-7--|
D|------------------------------------------------------------------------|
A|------------------------------------------------------------------------|
E|------------------------------------------------------------------------|

e|-------------------------------------------------------------------------|
B|-------------------------------------------------------------------------|
G|-11-11-11-11-9-9-8-8-8-8-9-9-9-9-11-11-11-11-11-11-11-12-9-9-9-9-9-9-9-9-|
D|-------------------------------------------------------------------------|
A|-------------------------------------------------------------------------|
E|-------------------------------------------------------------------------|

e|------------------------------------------------|
B|------------------------------------------------|
G|---9-9-9-9-9-9-9-11-11-11-11-12-12-12-12--------|
D|------------------------------------------------|
A|------------------------------------------------|
E|------------------------------------------------|

Aran

e|------------------------------------------|
B|------------------------------------------|
G|------------------------------------------|
D|---4-(16x)--------------------------------|
A|---2--------5-(16x)--5-(16x)--4-(16x)-----|
E|------------3--------1--------2-----------|

Solo

Jamie
e|---------------------------------------12-14-12-14--17-19-17---|
B|---------------------12-14-15-14-15-14-------------------------|
G|---11-12-14-11-12-14-------------------------------------------|
D|---------------------------------------------------------------|
A|---------------------------------------------------------------|
E|---------------------------------------------------------------|

e|-14-15-14----14----14---14-15-14----14----------19-15-14----14-----------|
B|----------17----17---------------17----17-15-14----------17----17-15-14--|
G|-------------------------------------------------------------------------|
D|-------------------------------------------------------------------------|
A|-------------------------------------------------------------------------|
E|-------------------------------------------------------------------------|

e|-------------------------------------------------------------------------|
B|--15p14p12-14p12----12---------------------------------------------------|
G|-----------------14----14-12--14p12p11-12p11----11-----------------------|
D|---------------------------------------------14----14-12--14p12p11-12p11-|
A|-------------------------------------------------------------------------|
E|-------------------------------------------------------------------------|

e|----------------------------------------------------|
B|----------------------------------------------------|
G|----------------------------------------------------|
D|----11----------------------------------------------|
A|-14----14-12--14p12p10-12p10----10------------------|
E|-----------------------------14----14-14p12p10-0~---|

Tabbed By coheedandnofx6

Добавлено: 27.12.2013
Другие материалы по этой песне:
  • Аккорды и текст

Страница создана 27.12.2013
http://primanota.ru/aurora/thank-you-for-the-venom-chords.htm
Привет, Гость.
Предлагаем пройти революционный курс по гитаре.
Подарок от PrimaNota.Ru, забирай!