PrimaNota.ru - самый крупный в мире бесплатный архив песенных текстов, аккордов, табулатур и нот


Aurora - Ihtfp - таба

Регистрация Запомнить меня
Войти через:  Facebook Google Twitter Vk Yandex Mail.ru

Aurora - Ihtfp - таба

Печатать
Просмотров: 117


IHTFP (I HAVE TRULY FOUND PARADISE/I HATE THIS FUCKING PLACE)

~ let ring
x palm mute
/ slide up
 slide down

INTRO:

GUITAR 1 (CLEAN)

E|----------------------|
B|----------------------|
G|------6-------6-------|
D|----6---6---6---6-----|
A|--4-------4-----------|
E|----------------------| x2

E|----------------------|
B|----------------------|
G|------4-------4-------|
D|----4---4---4---4-----|
A|--2-------2-----------|
E|----------------------| x2

GUITAR 2 (DISTORTION)

E|----------------------|
B|----------------------|
G|--6~------6~----------|
D|--6~------6~----------|
A|--4~------4~----------|
E|----------------------| x2

E|----------------------|
B|----------------------|
G|--4~------4~----------|
D|--4~------4~----------|
A|--2~------2~----------|
E|----------------------| x2

VERSE

THIS SPEEDS UP, AND BOTH GUITARS PLAY THE SAME

E|----------------------|----------------------|
B|----------------------|----------------------|
G|--4-4-4-4--6-6-6-6----|--8-8-8-8--6-6-6-6----|
D|--4-4-4-4--6-6-6-6----|--8-8-8-8--6-6-6-6----|
A|--2-2-2-2--4-4-4-4----|--6-6-6-6--4-4-4-4----|
E|----------------------|----------------------| x4

E|----------------------|----------------------|
B|----------------------|----------------------|
G|----------------------|----------------------|
D|----------------------|----------------------|
A|--2-2-2-2--4-4-4-4----|--6-6-6-6--4-4-4-4----|
E|----------------------|----------------------| x1

CHORUS

GUITAR 1

E|--3-3-3--5-5--3~------|
B|--3-3-3--5-5--3~------|
G|--3-3-3--5-5--3~------|
D|--5-5-5--7-7--5~------|
A|--5-5-5--7-7--5~------|
E|--3-3-3--5-5--3~------|

BRIDGE

GUITAR 1

E|----------------------|
B|----------------------|
G|------3-------3-------|
D|----3---3---3---3-----|
A|--1-------1-----------|
E|----------------------| x2

E|----------------------|
B|----------------------|
G|------5-------5-------|
D|----5---5---5---5-----|
A|--3-------3-----------|
E|----------------------| x2

GUITAR 2

E|----------------------|
B|----------------------|
G|--3-------3-----------|
D|--3-------3-----------|
A|--1-------1-----------|
E|----------------------| x2

E|----------------------|
B|----------------------|
G|--5-------5-----------|
D|--5-------5-----------|
A|--3-------3-----------|
E|----------------------| x2

EXTRA RIFF

E|----------------------|
B|----------------------|
G|--3--4--5--6----------|
D|--3--4--5--6----------|
A|--1--2--3--4----------|
E|----------------------|

STRUCTURE:

INTRO x1
VERSE x1
CHORUS x1
VERSE x2
CHORUS x1
BRIDGE x1
CHORUS x3
EXTRA RIFF x1
BRIDGE x1
INTRO x2 WITH FADE

TABBED BY MAGIC NODEN


Добавлено: 08.12.2013
Другие материалы по этой песне:
  • Аккорды и текст

Страница создана 08.12.2013
http://primanota.ru/aurora/ihtfp-chords.htm
Привет, Гость.
Предлагаем пройти революционный курс по гитаре.
Подарок от PrimaNota.Ru, забирай!