PrimaNota.ru - самый крупный в мире бесплатный архив песенных текстов, аккордов, табулатур и нот


As Blood Runs Black - Hester Prynne - текст песни, таба, драм-таба, видео

Регистрация Запомнить меня
Войти через:  Facebook Google Twitter Vk Yandex Mail.ru

As Blood Runs Black - Hester Prynne - текст песни, таба, драм-таба, видео

Печатать
Просмотров: 315
As Blood Runs Black
Hester Prynne
Allegiance

Guitar 1.......Ernie CGCFAD

Tabbed by: Some Kid In The CA 951

Intro/Verse A
d-----------------------------------------|
a-----------------------------------------|
f-----------------------------------------|
c-----------------------------------------|
g--0-5p4-7p5-8p5-10p8-12p8-10p8-8p7-------|
c--0-------------------------------- -----|(x2)


d-------------------------------------------------------------------------|
a-------------------------------------------------------------------------|
f-------------------------------------------------------------------------|
c-------------------------------------------------------------------------|
g-----7p5-8p5-----7p5-8p5-----8p5-------7p5-8p5-------7p5-8p5-7p5-5p4-----|
c—8-8---------8-8---------8-8-----10-10---------10-10---------------------|


After Intro

d-----------------------------------------------------------------------|
a-----------------------------------------------------------------------|
f-----------------------------------------------------------------------|
c-----------------------------------------------------------------------|
g—-4h7-4h7-0h3-0h3-4h7-4h7-0h3-0h3-3h6-3h6---------3h6-3h6--------------|
c---------------------------------------------6h9-6h9---------6h9-6h9---|

Then.....the little bridge breakdown thing (palm muted)

d----------------------------------------------|
a----------------------------------------------|
f----------------------------------------------|
c----------------------------------------------|
g--0000000000000000000-0000-0000-0000-0-0------|
c--0000000000000000000-0000-0000-0000-0-0------|

     (approx)-^

Verse B

d---------------------------------------------------------------|
a---------------------------------------------------------------|
f---------------------------------------------------------------|
c----------------------------------------------------7-5--------|
g------5---3h5---5-----3h5p3------------8---7h8---------8-7-5---|
c—-0-0---0-----0---0-0-------6-5-3--8-8---8-----8-8-------------|

pm .    .      .           .      .   .                           .   .       .          ..

Verse B II

d---------------------------------------------------------------|
a---------------------------------------------------------------|
f---------------------------------------------------------------|
c----------------------------------------------------7-5--------|
g------5---3h5---5-----3h5---5---5------8---7h8---------8-7-5---|
c--0-0---0-----0---0-0-----0---0----8-8---8-----8-8-------------|

pm .   .       .          .      .   .          .      .         .   .      .           ..


Then Verse B III
d-----------------------------------------------------|
a-----------------------------------------------------|
f-----------------------------------------------------|
c-------------------------3---------------------------|
g------5---3h5---5---3h5--------8---7h8---8---7h8-5---|
c--0-0---0---------0--------8-8---8---------8---------|

pm .   .      .                  .                .  .       .                 .

d------------------------------------------------------------------|
a------------------------------------------------------------------|
f------------------------------------------------------------------|
c------------------------------------------------------------------|
g-------5---3h5-----5---8---5---3------8---7h8------8---10---8---7-|
c---0-0---0-----0-0---0---0---0----8-8---8-----8-8----8----8---8---|

pm  .    .      .          .   .       .      .       .        .   .       .         .
       .       .


BACK TO VERSE B I

THEN TO INTRO

Then Breakdown
d--------------------------|
a--------------------------|
f--------------------------|
c--------------------------|     (a)
g--000-0-000-000-000-0-4*^-|
c--000-0-000-000-000-0-----|

pm . . .   .   . . .   . . .  . . .   .

d------------------------------------------|
a-------------------------------18---------|
f--------------------14h15h17h18--18p17p15-|
c------------------------------------------|     (b)
g--000-0-000-000-000-----------------------|
c--000-0-000-000-000-----------------------|

pm . . .  .    . . .   . . .   . . .
d-----------------------|
a-----------------------|
f-----------------------|
c-----------------------|     (c)
g--000-0-000-000-000-00-|
c--000-0-000-000-000-00-|


After Breakdown - Verse C
d--------------------------------------------------------------------|
a--------------------------------------------------------------------|
f--------------------------------------------------------------------|
c--------------------------------------------------------------------|
g------8---5h8p5----------8---5h8p5----------8---5h8p5-----8-7-9*~---|
c--0-0---0-------8----0-0---0-------7----0-0---0-------8----8-7------|

pm .   .      .                        .  .       .                       .   .      .

After Verse
d------------------------------------------------|
a------------------------------------------------|
f------------------------------------------4*----|
c-----------------4*-----------------------------| (a)
g-----8---7---5------5*-------10---8---7------4*-|
c--0-0--0---0---0---------8-8----8---8---8-------|

pm.   .     .       .      .                  .   .        .      .       .

d------------------------------------------|
a------------------------------------------|
f------------------------------------4*----|
c-------------4*---------------------------| (b)
g----888-7-5-----5*-----101010-8-7------4*-|
c--0------------------8--------------------|

pm     . . .  .   .                          .   .   .  .  .

d---------|
a---------|
f---------|
c---------| (c)
g---8--7--|
c---8--7--|

Outro Breakdown (Palm Muted)
d-------------------------------|
a-------------------------------|
f-------------------------------|
c-------------------------------|
g--000000000-0-00000000-0-00-00-|
c--000000000-0-00000000-0-00-00-|

       (approx)-^

Ok this song was a major B!tch to sound out.....I know it's a little off, but if you
it a bit, you can get the right sound. Hope you like it.
Добавлено: 26.06.2012
Другие материалы по этой песне:

Страница создана 17.03.2012
http://primanota.ru/as-blood-runs-black/hester-prynne-chords.htm
Привет, Гость.
Предлагаем пройти революционный курс по гитаре.
Подарок от PrimaNota.Ru, забирай!