PrimaNota.ru - самый крупный в мире бесплатный архив песенных текстов, аккордов, табулатур и нот


As Blood Runs Black - Intro - таба, видео

Регистрация Запомнить меня
Войти через:  Facebook Google Twitter Vk Yandex Mail.ru

As Blood Runs Black - Intro - таба, видео

Печатать
Просмотров: 193
Tabed By Colin Campbell
I only felt like tabing out this much...
you should be able to figure the rest out on your own...




Gtr I
|----------------|--------------------------------------------------|
|----------------|--------------------------------------------------|
|----------------|--------------------------------------------------|
|----------------|--------------------------------------------------|
|----------------|------------5-4-5-7-------7-----------7-8---4*----|
|-0-0-0---0-0-0--|-0--8-5-7-8---------8-------8-5--7--8-------------|
|
| Gtr II
|----------------|--------------------------------------------------|
|----------------|--------------------------------------------------|
|----------------|--------------------------------------------------|
|----------------|-0------------------------------------------------|
|----------------|-0------------------------------------------------|
|-0-0-0---0-0-0--|-0------------------------------------------------|


  Gtrs I, II
  
|--------------|-------------|------------------|--------------|
|--------------|-------------|------------------|--------------|
|--------------|-------------|------------------|--------------|
|--------------|-------------|------------------|--------------|
|--------------|-5--4--5--7--|--------7---------|-7--8---4*----|
|-0----8-5-7-8-|-------------|-8--------8-5-7-8-|--------------|

Добавлено: 18.06.2012
Другие материалы по этой песне:

Страница создана 23.03.2012
http://primanota.ru/as-blood-runs-black/intro-chords.htm
Привет, Гость.
Предлагаем пройти революционный курс по гитаре.
Подарок от PrimaNota.Ru, забирай!