PrimaNota.ru - самый крупный в мире бесплатный архив песенных текстов, аккордов, табулатур и нот


As Blood Runs Black - My Fears Have Become Phobias - текст песни, таба, бас-таба, видео

Регистрация Запомнить меня
Войти через:  Facebook Google Twitter Vk Yandex Mail.ru

As Blood Runs Black - My Fears Have Become Phobias - текст песни, таба, бас-таба, видео

Печатать
Просмотров: 406
Уроки эстрадного вокала в Санкт-Петербурге
Song:    my fears have become phobias (solo)
Band:    as blood runs black
Album:   Allegiance
Tuning: Drop C

 +KEY+
PM - Palm mute
* - Pinch harmonic
# - natural harmonic
\ - Slide down
/ - Slide up
x - Mute string
~ - Vibrato
^ - rapid pick (tremolo pick)
(note)- Ghost note
\\\- pick slide
(2x)- play single staff again
<<<2x - play whole part again

Notes: I tabbed this because no one could get it right or felt like tabbing it. i know 
it is right and i know that they have 3 guitars. enjoy, and feel free to comment.


 SOLO

 gt.1
|-----------------------------------------------------------|
|-----------------------------------------------------------|
|-----------------------------------------------------------|
|-12-11-12-14-12-14-15-14-15-17-15-17-19-17-15-17-15-14-12~-|
|-----------------------------------------------------------|
|-----------------------------------------------------------|
|
|Gt.3
|---------------------------------------------------------------------|
|---------------------------------------------------------------------|
|---------------------------------------------------------------------|
|---------------------------------------------------------------------|
|---------------------------------------------------------------------|
|-0--0--0--0--0--0--0--0--0--0--0--0--0--0--0--0--0--0--0--0--0--0--0-|
PM.  .  .  .  .  .  .  .  .  .  .  .  .  .  .  .  .  .  .  .  .  .  .


 gt.1
|-13h17p13--------12h15p12--------10h13p10--------8h12p8-------|
|----------15--------------13--------------11------------10----|
|-------------14--------------12--------------10------------9--|
|--------------------------------------------------------------|
|--------------------------------------------------------------|
|--------------------------------------------------------------|
|
|gt.2
|--10h13p10--------8h12p8--------7h10p7------5h8p5-----|
|-----------11------------10------------8----------6---|
|--------------10------------9------------7----------5-|
|------------------------------------------------------|
|------------------------------------------------------|
|------------------------------------------------------|
|
|gt.3
|-----------------------------------------------------|
|-----------------------------------------------------|
|-----------------------------------------------------|
|-----------------------------------------------------|
|-----------------------------------------------------|
|-8--8-8-8-8-8-8--8-8-8-8-8-5--5-5-5-5-5-5--5-5-5-5-5-|
PM.  . . . . . .  . . . . . .  . . . . . .  . . . . .

 gt.1
|------------------------------------------|
|-----------10*------------------10*-------|
|-7--10--9------10--9--7--10--9------10--9-|
|------------------------------------------|
|------------------------------------------|
|------------------------------------------|
|
|gt.2
|------------------------------------------|
|----10--8--10*-10--8-----10--8--10*-10--8-|
|-7--------------------7-------------------|
|------------------------------------------|
|------------------------------------------|
|------------------------------------------|
|
|gt.3
|-------------------------------------------------|
|-------------------------------------------------|
|-------------------------------------------------|
|-------------------------------------------------|
|-------------------------------------------------|
|-0-0-0-0-0-0-0-0-0-0-0-0-0-0-0-0-0-0-0-0-0-0-0-0-|
PM. . . . . . . . . . . . . . . . . . . . . . . .


gt.1
|-----------------------------------------------------|
|-14--------------------------------------------------|
|----15-14-15-14-12-14-12----12-----------------------|
|-------------------------15----14h15p14-12h14p12-11~-|
|-----------------------------------------------------|
|-----------------------------------------------------|
|
|gt.2
|--------------------------------------------------------|
|-17-----------------------------------------------------|
|----19-17-19-17-15-17-15----15--------------------------|
|-------------------------19----19-17h19p17-15h17p15-14~-|
|--------------------------------------------------------|
|--------------------------------------------------------|
|
|gt.3
|-------------------------------------------------|
|-------------------------------------------------|
|-------------------------------------------------|
|-------------------------------------------------|
|-------------------------------------------------|
|-8-8-8-8-8-8-8-8-8-8-8-8-5-5-5-5-5-5-5-5-5-5-5-5-|


 gt.1
|-------------------13h17p13---------------------------13h17p13-------|
|----------15----------------15---------------15----------------15----|
|-------14----14----------------14---------14----14----------------14-|
|----15----------15---------------------15----------15----------------|
|-17---------------------------------17-------------------------------|
|---------------------------------------------------------------------|
|
|gt.3
|----------------------------------------------------|
|----------------------------------------------------|
|----------------------------------------------------|
|----------------------------------------------------|
|----------------------------------------------------|
|-0-0-0-0-0-0-0--0-0-0-0-0--0-0-0-0-0-0-0--0-0-0-0-0-|


 gt.1
|------------------------------------------------------------|
|-------15-14-12-14-12----------------15-14-12-14-12---------|
|-----10---------------15-14--------10---------------15-14---|
|---12----------------------------12-------------------------|
|-13----------------------------13---------------------------|
|------------------------------------------------------------|
|
|gt.3
|--------------------------------------------------|
|--------------------------------------------------|
|--------------------------------------------------|
|--------------------------------------------------|
|--------------------------------------------------|
|-8-8-8-8-8-8-8-8-8-8-8-8--3-3-3-3-3-3-7-7-7-7-7-7-|
Добавлено: 01.07.2012
Другие материалы по этой песне:

Страница создана 24.02.2012
http://primanota.ru/as-blood-runs-black/my-fears-have-become-phobias-chords.htm
Привет, Гость.
Предлагаем пройти революционный курс по гитаре.
Подарок от PrimaNota.Ru, забирай!