PrimaNota.ru - самый крупный в мире бесплатный архив песенных текстов, аккордов, табулатур и нот


As Blood Runs Black - Beautiful Mistake - текст песни, таба, бас-таба, видео

Регистрация Запомнить меня
Войти через:  Facebook Google Twitter Vk Yandex Mail.ru

As Blood Runs Black - Beautiful Mistake - текст песни, таба, бас-таба, видео

Печатать
Просмотров: 154
No solo in this tab.

Drop C-

 Intro 
|---------------------------------------------|
|---------------------------------------------|
|---------------------------------------------|
|---------------------------------------------|
|-------5-----------5-----------5-------5-----|
|-0h5h8---8p5-0h5h8---8p5-0h5h8---0h5h8---8p5-|

|-------------------------------------------------|
|-------------------------------------------------|
|-------------------------------------------------|
|-------------------------------------------------|
|-------7-----------7-----------7-----------7-----|
|-0-5-8---5-8-0-8-5---8-5-0-5-8---8-5-0-5-8---8-5-|
  . . .   . . . . .   . . . . .   . . . . .   . .

 Vers 1
|-------------------------------------------------|
|-------------------------------------------------|
|-------------------------------------------------|
|-------------------------------------------------|
|-------5p4---7p5---8p7p0-------5p4---7p5---8p7p0-|
|-0-0-0-----0-----0-------0-0-0-----0-----0-------|
  . . .     .     .       . . .     .     .

|-------------------------------------------------|
|-------------------------------------------------|
|-------------------------------------------------|
|-------------------------------------------------|
|-------8---7---10---8-----------8---7---10---8---|
|-8-8-8---8---8----8---8-8-7-7-7---7---7----7-----|
  . . .   .   .    .   . . . . .   .   .    . 

 Vers 2
|-------------------------------------------------|
|-------------------------------------------------|
|-------------------------------------------------|
|-------------------------------------------------|
|-8-----------8-----------7-----5-----------4h5h7-|
|---0-0-0-0-0---0-0-0-0-0---0-0---0-0-0-0-0-------|x2
    . . . . .   . . . . .   . .   . . . . .  

|-------------------------------------------------|
|-------------------------------------------------|
|-------------------------------------------------|
|-------------------------------------------------|
|-8-----------8-----------7-----5-----------4h5h7-|
|---8-8-8-8-8---8-8-8-8-8---8-8---8-8-8-8-8-------|
    . . . . .   . . . . .   . .   . . . . .

|-------------------------------------------------|
|-------------------------------------------------|
|-------------------------------------------------|
|-------------------------------------------------|
|-8-----------8-----------7-----5-----------4h5h7-|
|---7-7-7-7-7---7-7-7-7-7---7-7---7-7-7-7-7-------|
    . . . . .   . . . . .   . .   . . . . . 

 The first bit of the intro again

 Breakdown 
|---------------------------|
|---------------------------|
|---------------------------|
|---------------------------|
|-0-0-0-0-0-0-0-0-0-0-0-0-0-|
|-0-0-0-0-0-0-0-0-0-0-0-0-0-|
  . . . . . . . . . . . . .

|----------------------------------------------------------------------|
|----------------------------------------------------------------------|
|----------------------------------------------------------------------|
|----------------------------------------------------------------------|
|-0-0-0-0-0-0-0-0-0-0-0-0-0-------7-----------7-----5----4--5--7--5--4-|
|-0-0-0-0-0-0-0-0-0-0-0-0-0-0h5h8---8p5-0h5h8---8p5-3----2--3--5--3--2-|
  . . . . . . . . . . . . .

|---------------------------|
|---------------------------|
|---------------------------|
|---------------------------|
|-0-0-0-0-0-0-0-0-0-0-0-0-0-|
|-0-0-0-0-0-0-0-0-0-0-0-0-0-|
  . . . . . . . . . . . . .

|----------------------------------------------------------------------|
|----------------------------------------------------------------------|
|----------------------------------------------------------------------|
|----------------------------------------------------------------------|
|-0-0-0-0-0-0-0-0-0-0-0-0-0-------7-----------7-----10---8--7--8--7--4-|
|-0-0-0-0-0-0-0-0-0-0-0-0-0-0h5h8---8p5-0h5h8---8p5-8----7--5--7--5--2-|
  . . . . . . . . . . . . .

 Vers 3
|---------------------------------------------------|
|---------------------------------------------------|
|---------------------------------------------------|
|---------------------------------------------------|
|-------8p5---5-----------8p5---5-----10p7---7------|
|-0-0-0-----0---8p5-0-0-0-----0---8p5------0---10p7-|x2
  . . .     .       . . .     .            .

|--------------------------------------------------------|
|--------------------------------------------------------|
|--------------------------------------------------------|
|--------------------------------------------------------|
|-------12p8---8------------12p8---8------12p8---8h10h12-|
|-8-8-8------8---12p8-8-8-8------8---12p8------8---------|
  . . .      .        . . .      .             .

|-------------------------------------------------------|
|-------------------------------------------------------|
|-------------------------------------------------------|
|-------------------------------------------------------|
|-------12p8---8------------12p8---8------10p7---7h8h10-|
|-7-7-7------7---12p8-7-7-7------7---12p8------7--------|
  . . .      .        . . .      .             .

 Vers 2 again
 
 Solo

 The second guitar a bit in the solo
|--------------------------------------------------|
|--------------------------------------------------|
|--------------------------------------------------|
|--------------------------------------------7h8p7-|
|-8-----------8-----------7-----10-----------------|
|---0-0-0-0-0---0-0-0-0-0---0-0----0-0-0-0-0-------|x2
    . . . . .   . . . . .   . .    . . . . .

|--------------------------------------------------|
|--------------------------------------------------|
|--------------------------------------------------|
|--------------------------------------------7h8p7-|
|-8-----------8-----------7-----10-----------------|
|---8-8-8-8-8---8-8-8-8-8---8-8----8-8-8-8-8-------|
    . . . . .   . . . . .   . .    . . . . .

|--------------------------------------------------|
|--------------------------------------------------|
|--------------------------------------------------|
|--------------------------------------------7h8p7-|
|-8-----------8-----------7-----10-----------------|
|---7-7-7-7-7---7-7-7-7-7---7-7----7-7-7-7-7-------|
    . . . . .   . . . . .   . .    . . . . .

 Vers 4
|-------------------------------------------------|
|-------------------------------------------------|
|-------------------------------------------------|
|-------------------------------------------------|
|-8-----------5-----7-----------4-----5-----7-----|
|---0-0-0-0-0---0-0---0-0-0-0-0---0-0---0-0---0-0-|
    . . . . .   . .   . . . . .   . .   . .   . .

|-------------------------------------------------|
|-------------------------------------------------|
|-------------------------------------------------|
|-------------------------------------------------|
|-8-----------5-----7-----------4-----7-----4h5h7-|
|---0-0-0-0-0---0-0---0-0-0-0-0---0-0---0-0-------|
    . . . . .   . .   . . . . .   . .   . .

|--------------------------------------------------|
|--------------------------------------------------|
|--------------------------------------------------|
|--------------------------------------------------|
|-8-----------5-----7-----------7-----8-----10-----|
|---5-5-5-5-5---5-5---5-5-5-5-5---5-5---5-5----5-5-|
    . . . . .   . .   . . . . .   . .   . .    . .

|-----------------------------------------------------|
|-----------------------------------------------------|
|-----------------------------------------------------|
|-----------------------------------------------------|
|-12-----------8-----10-----------7-----10-----7h8h10-|
|----8-8-8-8-8---8-8----7-7-7-7-7---7-7----7-7--------|
     . . . . .   . .    . . . . .   . .    . .

 Vers 6
|--------------------------------------------------|
|--------------------------------------------------|
|--------------------------------------------------|
|--------------------------------------------------|
|-------5p4---7p5---8p7p0-------5p4---7p5---8p7p0--|
|-0-0-0-----0-----0-------0-0-0-----0-----0--------|
  . . .     .     .       . . .     .     .

|-------------------------------------------------|
|-------------------------------------------------|
|-------------------------------------------------|
|-------------------------------------------------|
|-5-5-5-5-5-5-5-5-5-5-5-5-4-4-4-4-4-4-1-1-1-1-1-1-|
|-3-3-3-3-3-3-3-3-3-3-3-3-2-2-2-2-2-2-0-0-0-0-0-0-|

|--------------------------------------------------|
|--------------------------------------------------|
|--------------------------------------------------|
|--------------------------------------------------|
|-------5p4---7p5---8p7p0-------5p4---7p5---8p7p0--|
|-0-0-0-----0-----0-------0-0-0-----0-----0--------|
  . . .     .     .       . . .     .     .

|---------------------------------------------------|
|---------------------------------------------------|
|---------------------------------------------------|
|---------------------------------------------------|
|-101010101010101010101010-101010101010-4-4-4-4-4-4-|
|-8-8-8-8-8-8-8-8-8-8-8-8--7-7-7-7-7-7--2-2-2-2-2-2-|

|--------------------------------------------------|
|--------------------------------------------------|
|--------------------------------------------------|
|--------------------------------------------------|
|-------5p4---7p5---8p7p0-------5p4---7p5---8p7p0--|
|-0-0-0-----0-----0-------0-0-0-----0-----0--------|
  . . .     .     .       . . .     .     .

|----------------------------------------------------|
|----------------------------------------------------|
|----------------------------------------------------|
|----------------------------------------------------|
|-10101010101010101010-8-8-8-7-7-7-8-8-8-7-7-7-4-4-4-|
|-8-8-8-8-8-8-8-8-8-8--7-7-7-5-5-5-7-7-7-5-5-5-2-2-2-|

 Vers 7
|-------------------------------------------------|
|-------------------------------------------------|
|-------------------------------------------------|
|-------------------------------------------------|
|-------8p5---8-----------5-5-5-5-5-5-4-4-4-4-4-4-|
|-0-0-0-----0---8p5-0-0-0-3-3-3-3-3-3-2-2-2-2-2-2-|
  . . .     .       . . .

|---------------------------------------------------|
|---------------------------------------------------|
|---------------------------------------------------|
|---------------------------------------------------|
|-------8p5---8-----------8p5---8-----10p7---7------|
|-0-0-0-----0---8p5-0-0-0-----0---8p5------0---10p7-|x2
  . . .     .       . . .     .            .

|----------------------------------------------------|
|----------------------------------------------------|
|----------------------------------------------------|
|----------------------------------------------------|
|-------12p8---8------------101010101010101010101010-|
|-8-8-8------8---12p8-8-8-8-8-8-8-8-8-8-7-7-7-7-7-7--|
  . . .      .        . . . 

|-------------------------------------------------------|
|-------------------------------------------------------|
|-------------------------------------------------------|
|-------------------------------------------------------|
|-------12p8---8------------12p8---8------10p7---7h8h10-|
|-7-7-7------7---12p8-7-7-7------7---12p8------7--------|
  . . .      .        . . .      .             .

Thanks, rate & comment please!
Добавлено: 11.06.2012
Другие материалы по этой песне:

Страница создана 20.04.2012
http://primanota.ru/as-blood-runs-black/beautiful-mistake-chords.htm
Привет, Гость.
Предлагаем пройти революционный курс по гитаре.
Подарок от PrimaNota.Ru, забирай!