PrimaNota.ru - самый крупный в мире бесплатный архив песенных текстов, аккордов, табулатур и нот


Arch Enemy - The Ides Of March - таба, видео

Регистрация Запомнить меня
Войти через:  Facebook Google Twitter Vk Yandex Mail.ru

Arch Enemy - The Ides Of March - таба, видео

Печатать
Просмотров: 223
Авторы музыки: Steve Harris

Really great song, I'm surprised that no one has tabbed it yet...

Tuning: Drop C

h=hammer on
p=pull off

D |--------------------------------------------------------------------------|
A |--------------------------------------------------------------------------|
F |-6---8---9----------------------9--8--6--4---6--8--9--8--6--4--6----------|
C |-6---8---9---4--6--7----6--4----9--8--6--4---6--8--9--8--6--4--6----------|
G |-4---6---7---4--6--7----6--4----7--6--4--2---4--6--7--6--4--2--4----------|
C |-------------4--6--7----6--4----------------------------------------------|

Guitar 1
D |--------------------------------------------------------------------------|
A |---------7--9--10--12--14-----12h14p12--10--10-9-7----7-9--10-9-7----7----|
F |---8--9---------------------------------------------9--------------9------|
C |--------------------------------------------------------------------------|
G |--------------------------------------------------------------------------|
C |--------------------------------------------------------------------------|

Guitar 2
D |---------------------------------------------------------------------------|
A |---------------------------------------------------------------------------|
F |---------------------------------------------------------------------------|
C |---------------------------------------------------------------------------|
G |-----------------9--11--12--11h12p11--9------------------------------------|
C |-9--11---13--14--------------------------14-13-11-9--11-13--14-13-11-9-11--|
Добавлено: 10.07.2012
Другие материалы по этой песне:
  • Аккорды и текст

Страница создана 10.07.2012
http://primanota.ru/arch-enemy/the-ides-of-march-chords.htm
Привет, Гость.
Предлагаем пройти революционный курс по гитаре.
Подарок от PrimaNota.Ru, забирай!