PrimaNota.ru - самый крупный в мире бесплатный архив песенных текстов, аккордов, табулатур и нот


Arch Enemy - As The Pages Burn - таба, видео

Регистрация Запомнить меня
Войти через:  Facebook Google Twitter Vk Yandex Mail.ru

Arch Enemy - As The Pages Burn - таба, видео

Печатать
Просмотров: 403
Уроки эстрадного вокала в Санкт-Петербурге
My version of the song "As the Pages Burn" by Arch Enemy 

Tabbed by: Erik Hanssen

Intro 
Tuning :  C  F  Bb Eb G c


*****************************************************************************
*****************************************************************************

c|-------------------------------------------------------------------|
G|-------------------------------------------------------------------|
E|-------------------------------------------------------------------|
B|--9--9--9--9-------------------------8--8--8--8--------------------|
F|--7--7--7--7--10-10-10-10-10-10------6--6--6--6--10-10-10-10-10-10-|
C|-------------------------------------------------------------------|


c|-------------------------------------------------------------------|
G|-------------------------------------------------------------------|
E|-------------------------------------------------------------------|
B|--9--9--9--9-------------------------8--8--8--8--8-----------------|
F|--7--7--7--7--10-10-10-10-10-10------6--6--6--6--6-----------------|
C|-------------------------------------------------------------------|



******************************************************************************
******************************************************************************
Добавлено: 05.06.2014
Другие материалы по этой песне:

Страница создана 05.06.2014
http://primanota.ru/arch-enemy/as-pages-burn-chords.htm
Привет, Гость.
Предлагаем пройти революционный курс по гитаре.
Подарок от PrimaNota.Ru, забирай!