PrimaNota.ru - самый крупный в мире бесплатный архив песенных текстов, аккордов, табулатур и нот


Arch Enemy - Revolution Begins - текст песни, таба, видео

Регистрация Запомнить меня
Войти через:  Facebook Google Twitter Vk Yandex Mail.ru

Arch Enemy - Revolution Begins - текст песни, таба, видео

Печатать
Просмотров: 332
Авторы музыки: Michael Amott, Christopher Amott
Авторы текста: Michael Amott
Its No Perfect But
Hopefully this will help u tab the full song :)

Tuning Is
C-F-Bb-Eb-G-C

Riff 1 (Listen To Song For Timing)

|------------------------------------------|
|------------------------------------------|
|----------------5-5-5-5-5-7-7-7-7-7-7-7-7-|
|------2-2-2-2-2-3-3-3-3-3-5-5-5-5-5-4-4-4-|
|--3-5-0-0-0-0-0---------------------------|
|--1-3-------------------------------------|

Changes To(BEFORE RIFF 2)

|-------------------------------------------------------|
|-------------------------------------------------------|
|-------------------------------------------------------|
|------2-2-2-2-2-10-10-10-10-10-12-12-12-12-12-12-12-12-|
|--3-5-0-0-0-0-0--8--8--8--8--8-10-10-10-10-10--9--9--9-|
|--1-3--------------------------------------------------|

Riff 2 (LISTEN TO SONG FOR TIMING)
         P
|-----------------------------------------|
|-----------------------------------------|
|-------5^4-------------------------------|
|------------7--5/7-----------------------|
|-----------------------------------------|
|-----------------------------------------|   

|-----------------------------------------|
|-----------------------------------------|
|-------5-4-------------------------------|
|------------7--5/7-3---------------------|
|-----------------------------------------|
|-----------------------------------------|

|-----------------------------------------|
|-----------------------------------------|
|-------5^4-------------------------------|
|------------7--5/7-----------------------|
|-----------------------------------------|
|-----------------------------------------|

|-----------------------------------------|
|-----------------------------------------|
|-------5-4-------7-5---------------------|
|-----------------------------------------|
|-----------------------------------------|
|-----------------------------------------|

Verse 

|------------5----------------------------|
|----------8------------------------------|
|--------5--------------------------------|
|-------7---------------------------------|
|-----------------------------------------|
|-----------------------------------------|

(Distortion)
|-----------------------------------------|
|-----------------------------------------|
|-----------------------------------------|
|-----------------------------------------|
|-------2--3------5--------8------9-------|
|---5-------------------------------------|

|-----------------------------------------|
|-----------------------------------------|
|-----------------------------------------|
|-----------------------------------------|
|-11--11-12-11--12--11-12----11--12-------|
|-----------------------------------------|
      |Pm--------------------------|

Pre Chorus


|-----------------------------------------|
|-----------------------------------------|
|-----------------------------------------|
|-----------------------------------------|
|-----------------------------------------|
|--1--1--1--1--1-1-4-1--0-4-0-4-----------|
\Pm---------------------------------------/

COMPLAINTS : Send TO:  Strng.james@gmail.com
Добавлено: 28.07.2012
Другие материалы по этой песне:

Страница создана 26.05.2012
http://primanota.ru/arch-enemy/revolution-begins-chords.htm
Привет, Гость.
Предлагаем пройти революционный курс по гитаре.
Подарок от PrimaNota.Ru, забирай!