PrimaNota.ru - самый крупный в мире бесплатный архив песенных текстов, аккордов, табулатур и нот


Arch Enemy - Silent Wars - текст песни, таба, бас-таба, видео

Регистрация Запомнить меня
Войти через:  Facebook Google Twitter Vk Yandex Mail.ru

Arch Enemy - Silent Wars - текст песни, таба, бас-таба, видео

Печатать
Просмотров: 308
Авторы музыки: Michael Amott, Christopher Amott
Авторы текста: Angela Gossow
-------------------------------------------------------------------------
	 Artist :  Arch Enemy
	   Song :  Silent Wars (main riffs only)
	  Album :  Anthems Of Rebellion
            Web :  http://www.archenemy.net
-------------------------------------------------------------------------
		 _____________________________________
		|    Tab made by Esteban (BrOoD)      |
		|    the4horsemen[at]gmail[dot]com    |
		 -------------------------------------
Note:	This tab is only for use as educational tab. Its not 100% perfect, but,
	because the main riffs in the other tabs are wrong, i think this 
	will be more acurately than the others. Sorry for my english. 
	I dont know if im picking correctly, but maybe this is the easiest
	way i found, and i think is the correct one.
		 __________________
		|  d = downstroke  |
		|  u = upstroke    |
		 ------------------

----------------------------------------------------------------------
 ___________
| Main Rifs |
 -----------
Repeat 4 times
|---------------------------------------------------------------|
|---------------------------------------------------------------|
|---------------------------------------------------------------|
|---------------------------------------------------------------|
|---5h7-----------5h8-----------5h7----------5h7------5h8-------|
|--------00--000-------00--000------00--000-------00-------00---|
    d	 du  dud  d    du  dud d    du  dud  d    du  d    du 


Repeat 4 times
|------------------------------------------------------------|
|------------------------------------------------------------|
|------------------------------------------------------------|
|------------------------------------------------------------|
|---5h7----------5h8----------5h7---------5h7------5h8-------|
|--------000000-------000000------000000-------00-------00---|
    d	 dududu  d    dududu  d   dududu  d    du  d    du


Repeat 3 times
|-----------------------------------------------|
|-----------------------------------------------|
|-----------------------------------------------|
|---9------3-------4-------5-------6-----7------|
|---7------1-------2-------3-------4-----5------|
|-----0-0-----0-0-----0-0-----0-0-----0-----0---|
    d d d  d  d d  d  d d  d  d d  d  d  d  d



|----------------------------------10p7--------------|
|----------------------------------------9-----------|
|-------------------------------------------10--7~---|
|---9------3-------4-------5-------------------------|
|---7------1-------2-------3-------------------------|
|-----0-0-----0-0-----0-0-----0-0--------------------|
    d d d  d  d d  d  d d  u     u  u   d


This is killing us....
Repeat 4 times
|---------------------------------------------------------------|
|---------------------------------------------------------------|
|---------------------------------------------------------------|
|---------------------------------------------------------------|
|---5h7-----------5h8-----------5h7----------5h7------5h8-------|
|--------00--000-------00--000------00--000-------00-------00---|
    d	 du  dud  d    du  dud d    du  dud  d    du  d    du


Tragic sinister serenade....
Repeat 4 times
|------------------------------------------------------------|
|------------------------------------------------------------|
|------------------------------------------------------------|
|------------------------------------------------------------|
|---5h7----------5h8----------5h7---------5h7------5h8-------|
|--------000000-------000000------000000-------00-------00---|
    d	 dududu  d    dududu  d   dududu  d    du  d    du


No more, no more....
|--------------------------------------------------------------|
|--------------------------------------------------------------|
|---9-9------------9-9-9-9------------9-9------------9-9-9-9---|
|---8-8------------8-8-8-8------------8-8------------8-8-8-8---|
|---7-7------------7-7-7-7------------7-7------------7-7-7-7---|
|--------00000000-----------00000000-------00000000------------|
    d d  dudududu  d d d d  dudududu  d d  dudududu  d d d d



We have chosen to suffer....
|-------------------------|
|-------------------------|
|-------------------------|
|-------------7--/10--9---|
|---2--3--/8--5--/8---7---|
|---0--1--/6--------------|


Believe in nothing but....
|-------------------|
|-------------------|
|-------------------|
|----------7--/10---|
|---3--/8--5--/8----|
|---1--/6-----------|



Hatred is a vicious circle....
Repeat 4 times
|---------------------------------------------------------------|
|---------------------------------------------------------------|
|---------------------------------------------------------------|
|---------------------------------------------------------------|
|---5h7-----------5h8-----------5h7----------5h7------5h8-------|
|--------00--000-------00--000------00--000-------00-------00---|
    d	 du  dud  d    du  dud d    du  dud  d    du  d    du 


Deeper and deeper the wounds we cut....
Repeat 4 times
|------------------------------------------------------------|
|------------------------------------------------------------|
|------------------------------------------------------------|
|------------------------------------------------------------|
|---5h7----------5h8----------5h7---------5h7------5h8-------|
|--------000000-------000000------000000-------00-------00---|
    d	 dududu  d    dududu  d   dududu  d    du  d    du


No more, no more....
|--------------------------------------------------------------|
|--------------------------------------------------------------|
|---9-9------------9-9-9-9------------9-9------------9-9-9-9---|
|---8-8------------8-8-8-8------------8-8------------8-8-8-8---|
|---7-7------------7-7-7-7------------7-7------------7-7-7-7---|
|--------00000000-----------00000000-------00000000------------|
    d d  dudududu  d d d d  dudududu  d d  dudududu  d d d d

(the next part of the song is ok in the other tabs. No more from me here. Thanks for
checking my tab. Byes)
			  _____
			 | END |
			  -----
Добавлено: 16.04.2012
Другие материалы по этой песне:

Страница создана 12.03.2012
http://primanota.ru/arch-enemy/silent-wars-chords.htm
Привет, Гость.
Предлагаем пройти революционный курс по гитаре.
Подарок от PrimaNota.Ru, забирай!