PrimaNota.ru - самый крупный в мире бесплатный архив песенных текстов, аккордов, табулатур и нот


Aphex Twin - Lichen - таба, видео

Регистрация Запомнить меня
Войти через:  Facebook Google Twitter Vk Yandex Mail.ru

Aphex Twin - Lichen - таба, видео

Печатать
Просмотров: 107
Авторы музыки: Richard David James

LICHEN (TRACK #19) - Aphex Twin

Sorry for the slight messiness of this tab (it wasn't written in the tab template)
This is a tab for the 19th track (better known as Lichen) from Aphex Twin's album, 
"Selected Ambient Works Vol. 2"
I took the different parts of the song and made them playable on the guitar.
It's just such a beautiful song.

Chords

E|----------------------------------------------------------------------------|
B|---1-------3-------5-------0---------1----------------1---------------------|
G|-----------2-------4-------0------------------2---------------2-------------|
D|---2-------0-------2-----------------2--------2-------2-------2-------------|
A|---3-----------------------2---------3--------0-------3-------0-------------|
E|----------------------------------------------------------------------------|

Woodwind Notes (Low)
Intro
E|--------------------------------------------------------------3----------------------------------|
B|--(3)----------------5------5-----------------3------------5-----5-------------------3------5----|
G|-------5--3--5----------7------7-----------2----(5)--------------------------------2------5------|
D|----------------------------------------5----------------------------------------5---------------|
A|----------------------------------------------------------------------------5--3-----------------|
E|-------------------------------------------------------------------------------------------------|

The other section (starts being played at roughly 1:20)
E|---------------------------------------------------------(3)----------------|
B|----------------------------------------------------3---5-------------------|
G|------2-------------------------------------------2---5------------5--2--5--|
D|-2--5---5--2-------------------2--5-------2-----5---------------------------|
A|--------------5-----3--5--3--5------0--3-----5------------------------------|
E|-----------------3----------------------------------------------------------|

Flute Lead
E|------------------------------------------------------------------------------------------|
B|--1------3------5------8------10------5------8------5-------------------------------------|
G|------------------------------------------------------------------------------------------|
D|------------------------------------------------------------------------------------------|
A|------------------------------------------------------------------------------------------|
E|------------------------------------------------------------------------------------------|
Добавлено: 01.09.2015
Другие материалы по этой песне:
  • Аккорды и текст

Страница создана 01.09.2015
http://primanota.ru/aphex-twin/lichen-chords.htm
Привет, Гость.
Предлагаем пройти революционный курс по гитаре.
Подарок от PrimaNota.Ru, забирай!