PrimaNota.ru - самый крупный в мире бесплатный архив песенных текстов, аккордов, табулатур и нот


Aphex Twin - On Reload Mix - бас-таба, видео

Регистрация Запомнить меня
Войти через:  Facebook Google Twitter Vk Yandex Mail.ru

Aphex Twin - On Reload Mix - бас-таба, видео

Печатать
Просмотров: 167
Artist: Aphex Twin
Title: On (Reload Mix)
Tabbed By Chipstar

1:02
G|----------------------------------------------------------------------|
D|----------------------------------------------------------------------|
A|-------5----------------------------------------------------5---------|
E|-5-7-8---5---5-7-8--5-0-5-7-8--5---5-7-8--5-0-2-3-5---5-7-8---5---0---|
B|----------------------------------------------------------------------|


G|----------------------------------------------------------------------|
D|----------------------------------------------------------------------|
A|-------5----------------------------------------------------5---------|
E|-5-7-8---5---5-7-8--5-0-5-7-8--5---5-7-8--5-0-2-3-5---5-7-8---5---0---|
B|----------------------------------------------------------------------|

3:05 Keyboards, no bass

3:19                             3:27
G|----------------------------------------------------------------------|
D|----------------------------------------------------------------------|
A|----------------------------------------------------------------------|
E|5/0----------------------------5\0------------------------------------|
B|----------------------------------------------------------------------|

3:32
G|----------------------------------------------------------------------|
D|----------------------------------------------------------------------|
A|-------5--------------------5------------------5----------------------|
E|-5-7-8---5-0-2-3-5--5-5-7-8---5-0-2-3-5--5-7-8-----0-2-3--------------|
B|-------------------------------------------------3--------------------|


G|----------------------------------------------------------------------|
D|----------------------------------------------------------------------|
A|-------5----------------------------------------------------5---------|
E|-5-7-8---5---5-7-8--5-0-5-7-8--5---5-7-8--5-0-2-3-5---5-7-8---5---0---|
B|----------------------------------------------------------------------|


G|----------------------------------------------------------------------|
D|----------------------------------------------------------------------|
A|-------5--------------------5------------------5----------------------|
E|-5-7-8---5-0-2-3-5--5-5-7-8---5-0-2-3-5--5-7-8-----0-2-3--------------|
B|-------------------------------------------------3--------------------|
Добавлено: 19.07.2012
Другие материалы по этой песне:
  • Аккорды и текст

Страница создана 19.07.2012
http://primanota.ru/aphex-twin/on-reload-mix-chords.htm
Привет, Гость.
Предлагаем пройти революционный курс по гитаре.
Подарок от PrimaNota.Ru, забирай!