PrimaNota.ru - самый крупный в мире бесплатный архив песенных текстов, аккордов, табулатур и нот


Aphex Twin - Flim - таба, видео

Регистрация Запомнить меня
Войти через:  Facebook Google Twitter Vk Yandex Mail.ru

Aphex Twin - Flim - таба, видео

Печатать
Просмотров: 299
Авторы музыки: Richard David James

Flim - Aphex Twin

Adapted for guitar
Standard tuning, capo 6th fret



PHRASE A
  E                Amaj7sus2
||-------------0--|-------------0--|-------------4--|-------------4--|
||-----0---4------|-----0---4------|----------------|---------2------|
||-1--------------|-1--------------|-----2---2------|-----2----------|
||----------------|----------------|-2-------1------|-4--------------|
||---------2------|-0-------0------|----------------|-0--------------|
||-0--------------|----------------|-2--------------|----------------|

Play PHRASE A three more times

PHRASE B
                   Amaj7sus2
||-7--p5---4--p0--|-------0--------|----------------|----------------|
||----------------|---0------------|-4h5p4p0-4/5\4-0|----------------|
||----------------|-----1----------|---------------1|----------------|
||----------------|----------------|---------------2|----------------|
||---------2------|-0--------------|---------2-----0|----------------|
||-0--------------|----------------|-0--------------|----------------|

||---------4--p0--|-------0--------|----------------|----------------|
||-----2----------|---0------------|-4---------0----|----------------|
||----------------|-----1----------|-2---------1----|----------------|
||-4--------------|----------------|-4---------2----|----------------|
||----------------|-0--------------|-0---------2----|----------------|
||-2--------------|----------------|----------------|----------------|

Repeat PHRASE B 

PHRASE C

||----------------|----------------|----------------|----------------|
||----------------|---4------------|----------------|----------------|
||-------1--------|----------------|-----------1---1|---1---2---1-2--|
||---2-------2----|----------------|---2---4-------2|---------------4|
||-4-----------4--|-2--------------|-0--------------|----------------|
||----------------|----------------|---------------2|----------------|

Play PHRASE C three more times, omit the last bar on the final repetition

Repeat from the top playing PHRASE A with greater intensity
Добавлено: 11.07.2012
Другие материалы по этой песне:

Страница создана 11.07.2012
http://primanota.ru/aphex-twin/flim-chords.htm
Привет, Гость.
Предлагаем пройти революционный курс по гитаре.
Подарок от PrimaNota.Ru, забирай!