PrimaNota.ru - самый крупный в мире бесплатный архив песенных текстов, аккордов, табулатур и нот


Aphex Twin - Untitled 1 Peel Sessions 1995 - бас-таба, видео

Регистрация Запомнить меня
Войти через:  Facebook Google Twitter Vk Yandex Mail.ru

Aphex Twin - Untitled 1 Peel Sessions 1995 - бас-таба, видео

Печатать
Просмотров: 143
Уроки эстрадного вокала в Санкт-Петербурге
PART 1

G|-------------------------------------|
D|-5-7-8-10----------------------------|
A|----------6-6-5-8--------------------|
E|-------------------------------------|


PART 2

G|----------------8-8------------------|
D|-8-10---8-8-8-8-----5-5--------------|
A|-------------------------------------|
E|-------------------------------------|

Listen for the timing, really weird stuff. But also rather simple LOL
Добавлено: 15.07.2014
Вам также может быть интересно:
Другие материалы по этой песне:
  • Аккорды и текст

Страница создана 15.07.2014
http://primanota.ru/aphex-twin/untitled-1-peel-sessions-1995-chords.htm
Привет, Гость.
Предлагаем пройти революционный курс по гитаре.
Подарок от PrimaNota.Ru, забирай!