PrimaNota.ru - самый крупный в мире бесплатный архив песенных текстов, аккордов, табулатур и нот


Aphex Twin - Petiatil Cx Htdui - таба, видео

Регистрация Запомнить меня
Войти через:  Facebook Google Twitter Vk Yandex Mail.ru

Aphex Twin - Petiatil Cx Htdui - таба, видео

Печатать
Просмотров: 109
Авторы музыки: Richard David James

e|--0-3-2-----0-2-----2-2-7-9-2---|--0-3-2-----0-2-----2-2-7-9-2---|
B|3-------2-3-----2-3-------------|3-------2-3-----2-3-------------|
G|--------------------------------|--------------------------------|
D|--------------------------------|--------------------------------|
A|--------------------------------|--------------------------------|
E|--------------------------------|--------------------------------|

e|----------5---------------------|----------5---------------------|
B|2-0-3-2-------------2-0-3-2-----|2-0-3-2-------------2-0-3-2-----|
G|----------------4-2---------0---|----------------4-2---------0---|
D|--------4-----4-----------------|--------4-----4-----------------|
A|--------------------------------|--------------------------------|
E|--------------------------------|--------------------------------|

e|----2------5-7-2---0---2--------|--------------------------------|
B|2--0----2-0-------------0-------|2-0---------0---2---------------|
G|--------------------------------|------------------------4-------|
D|--------------------------------|----4----2-4--------4-----------|
A|--------------------------------|--------------------------------|
E|--------------------------------|--------------------------------|

e|----7---9---2---2---0---0-------|----7---9---2---2---0---0-------|
B|--------------0-----------------|--------------0-----------------|
G|--------------------------------|--------------------------------|
D|4-------------------------------|4-------------------------------|
A|--------------------------------|--------------------------------|
E|--------------------------------|--------------------------------|

e|------------2---2-------0-------|------------9---9-------7-------|
B|--------3-----------------------|--------3-----------------------|
G|4-6---4-------------------------|4-6---4-------------------------|
D|--------------------------------|--------------------------------|
A|--------------------------------|--------------------------------|
E|--------------------------------|--------------------------------|

e|------------2---2-------0-------|--------------------------------|
B|--------3-----------------------|--------------------------------|
G|4-6---4-------------------------|--------------------------------|
D|--------------------------------|--------------------------------|
A|--------------------------------|--------------------------------|
E|--------------------------------|--------------------------------|

e|----2------5-7-2---0---2--------|--------------------------------|
B|2--0----2-0-------------0-------|2-0---------0---2---------------|
G|--------------------------------|------------------------4-------|
D|--------------------------------|----4----2-4--------4-----------|
A|--------------------------------|--------------------------------|
E|--------------------------------|--------------------------------|
Добавлено: 28.12.2013
Другие материалы по этой песне:
  • Аккорды и текст

Страница создана 28.12.2013
http://primanota.ru/aphex-twin/petiatil-cx-htdui-chords.htm
Привет, Гость.
Предлагаем пройти революционный курс по гитаре.
Подарок от PrimaNota.Ru, забирай!