PrimaNota.ru - самый крупный в мире бесплатный архив песенных текстов, аккордов, табулатур и нот


Antonio Lauro - Two Venezuelan Waltzes - No 2 - La Gatica - таба, видео

Регистрация Запомнить меня
Войти через:  Facebook Google Twitter Vk Yandex Mail.ru

Antonio Lauro - Two Venezuelan Waltzes - No 2 - La Gatica - таба, видео

Печатать
Просмотров: 591
Уроки эстрадного вокала в Санкт-Петербурге
La Gatica (from Two Venezuelan Waltzes)
Author: Antonio Lauro
Transcription By: Carlos Cordero
                  cachome@telcel.net.ve
                  http://www.geocities.com/Vienna/Waltz/2067/


                             "La Gatica"


Allegro
Key Signature: C Major
Time Signature: 3/4
Tablature Explanation At the End

First Revision: 15/05/2000

 D.C.                       c5--------/

E-||---0-----|---5-4-----7-|-5--------|---------1-0-|-0-------|---------0---|
B-||-----1---|-------3-----|-5--5-----|-------1-----|---3-----|-------0---3-|
G-||*----2---|---------4---|-5----5---|-----2-------|-----1---|-----1-------|
D-||*------2-|-------------|--------7-|---2---------|-------2-|---2---------|
A-||---0-----|-------------|-0--------|-3-----------|-2-------|-------------|
E-||---------|-0-----------|----------|-------------|---------|-0-----------|
         1 2     3 2 1 2 4          3   4 2 3 1 1     2 4 1 3     3 1     4
         3

                                                     c5-------/

E-|---0---------|-------------|-0-----|---5-4-----7-|-5--------|---6-5-----3-|
B-|-1---3-1-0---|-------------|---1---|-------3-----|-5--5-----|-------------|
G-|-----------2-|-1-----------|---2---|---------4---|-5----5---|-------6-----|
D-|-------------|---3-2-0-----|-----2-|-------------|--------7-|---------7---|
A-|-0-----------|---------3-2-|-0-----|-------------|-0--------|-0-----------|
E-|-------------|-0-----------|-------|-0-----------|----------|-------------|
     1  3    2    1 3 2   3 2     1 2     3 2 1 2 4          3     2 1 2 3 1
                                  3

                                      1°-----|   2є.--------|  c5---------/

E-|-1-------1-|-0---------|----0------|------|| |----4-5-6--||--5---------|
B-|---3-------|---0-------|----1------|------|| |-----------||----5-----6-|
G-|-----2-----|-----0---1-|-2---------|-----*|| |-----------||*-----6-----|
D-|-0-----3---|-------1---|-------2---|-----*|| |-----------||*-------7---|
A-|-----------|-----------|-0-------3-|--0.--|| |-0---------||------------|
E-|-----------|-0---------|-----------|------|| |-----------||--5---------|
    1 4 2 3 1         1 2   3  1 2 4     Fine.       1 2 3          2 3 2

   c5----------/                  c3---------------------------------------/

E-|---5-------|-1-----|----2-3-5-|-3---------|---3-------|-------|---------|
B-|-8-------8-|---3---|----------|---3-----5-|-6-------6-|-5-----|---4-5-6-|
G-|-----6-----|-----2-|----------|-----4-----|-----4-----|---5---|---------|
D-|-----------|-0-----|-3--------|-------5---|-----------|-----5-|---------|
A-|-----------|-------|----------|-----------|-----------|-3-----|-3-------|
E-|-5-----5---|-------|----------|-3---------|-3-----3---|-------|---------|
    4   2       1 3 2   2  1 3 4       2 3 4   4   3   4   4 3 2     2 3 4



E-|-0---------|---0-------|-----------|------------|--------|------------|
B-|---0-----1-|-3-------3-|-1-------0-|-1--3-----1-|-0------|---1--0-----|
G-|-----1-----|-----1-----|---2-------|------2-----|----1---|----------2-|
D-|-------2---|-----------|-----2-----|--------2---|------2-|--------1---|
A-|-2---------|-----------|-0-----3---|-0----------|-2------|-2----------|
E-|-----------|-0-----0---|-----------|------------|--------|------------|
    2   1 3 1   4   1       1 3 2 4     1  4 3 2     2  1 3   2 1    1 3


   1°---------------------|   2°---------------|

E-|----0------|----4-5-6--|| |----0--0-|-------|
B-|-----------|-----------|| |-------0-|-------|
G-|-1---------|----------*|| |-1-----1-|-------| D.C. and Fine.
D-|-----------|----------*|| |-------2-|-0-----|
A-|-------2---|-----------|| |---------|---3-2-|
E-|-0-------4-|-0---------|| |-0-------|-------|
    1     2 4      1 2 3       1     1     3 2
                                     3

................._

Tablature Explanation:
                                                                 cx------/

E-||----------|| |-------|---------|----(7----|-------|---------|---------|
B-||----------|| |-------|---------|----)7----|-------|---------|---------|
G-||--repeat--|| |--5/7--|--10p12--|----(5----|--1h4--|--<12>---|---------|
D-||----------|| |-------|---------|----)6----|-------|---------|---------|
A-||----------|| |-------|---------|----(6----|-------|---------|---------|
E-||----------|| |-------|---------|----)7----|-------|---------|---------|
                   Slur     pull     arpegiate  Hammer  Harmonic   Bar on
                            off                  on                x fret

......................................................_

E-|---Author:-Antonio-Lauro------------------------|
B-|---Transcription-by:-Carlos-Cordero-------------|
G-|---E-Mail:-cachome@telcel.net.ve----------------|
D-|---Look-More-Classical-Guitar-Tabs-at:----------|
A-|---http://www.geocities.com/vienna/waltz/2067---|
E-|---Enjoy!---------------------------------------|
......................................................_
Добавлено: 30.05.2012
Другие материалы по этой песне:
  • Аккорды и текст

Страница создана 30.05.2012
http://primanota.ru/antonio-lauro/two-venezuelan-waltzes-no-2-la-gatica-chords.htm
Привет, Гость.
Предлагаем пройти революционный курс по гитаре.
Подарок от PrimaNota.Ru, забирай!