PrimaNota.ru - самый крупный в мире бесплатный архив песенных текстов, аккордов, табулатур и нот


Antonio Lauro - Venezuelan Suite - No 2 - Danza Negra - таба, видео

Регистрация Запомнить меня
Войти через:  Facebook Google Twitter Vk Yandex Mail.ru

Antonio Lauro - Venezuelan Suite - No 2 - Danza Negra - таба, видео

Печатать
Просмотров: 155
SUITE VENEZOLANA  II - DANZA NEGRA

Music by Antonio Lauro
Arranged by Alirio Diaz

||-------------|-------------|------------|-------------|-------------|
||-----2---3---|---2-----3---|----2---3---|---2-----3---|--------7-5--|
||*----2---3---|---2-----3---|----2---3---|---2-----3---|------6------|
||*----3-----2-|-----3-----2-|----3-----2-|-----3-----2-|----5--------|
||--0----------|-0-----------|-0----------|-0-----------|-0-----------|
||-------0-----|-------0-----|------0-----|-------0-----|------0------|

|-----------------|-^5--3-------|------------|-------------|-------------|
|-----3--5--3-5-3-|-^3----6-5-3-|----2---3---|---2-----3---|----2---3----|
|-----4---------4-|-^4----------|----2---3---|---2-----3---|----2---3----|
|-----3---------3-|-^3----------|----1-----2-|-----3-----2-|----1-----2--|
|--0--------------|-^0----------|-0----------|-0-----------|-0-----------|
|-----------0-----|-------------|------0-----|-------0-----|------0------|

|-------------|------------|-------------|----------0-|--------8---7-7--|
|---2-----1---|----8---9---|---8-----6---|----5---5---|-10---------6----|
|---2-----1---|----8---9---|---8-----6---|----5---5---|-----9------7----|
|-----3-----3-|----7-----8-|-----7-----6-|----4---4---|----10----0------|
|-0-----1-----|-6----------|-6-----------|-0----------|-----------------|
|-------------|------6-----|-------6-----|------3-----|--8--------------|

|-5------5----7-10-|-8-10----8---6-|-^1--1---1---|----0---1---|----0---1----|
|-------------7----|-8----11---9---|-^1--1-----1-|----0-----1-|----0-----1--|
|----5--------7----|-8-------6-----|-^2--2---2---|----0---2---|----0---2----|
|------------------|-0-------0-----|-^0----0-----|------0-----|------0------|
|-6---------7------|---------------|-------------|------------|-------------|
|------------------|---------------|-------------|-3----------|-3-----------|

|---3-----1---|----0---1---|----0---1---|----0---1---|---3-----5----|
|-----1-----1-|----0-----1-|----0-----1-|----0-----1-|-----1-----4--|
|---3-----2---|----0---2---|----0---2---|----0---2---|---3-----5----|
|-2-----0-----|------0-----|------0-----|------0-----|-2-----0------|
|-------------|------------|------------|------------|--------------|
|-------------|-3----------|-3----------|-3----------|--------------|

|-----9-----8-|-----^7----------|-----0-2-----|------------2-5-|-4p2-0-2---0--|
|-------------|-----^7-----10-9-|-7h9-----3-5-|----------------|---------3----|
|---6-----8---|-----^7----------|-------------|------2---------|--------------|
|-------7-----|---7-------------|-------------|------4---------|--------------|
|-6-----------|-7---------------|-------------|--2---2---------|--------------|
|-------------|-----------------|-------------|----------------|--------------|

|--------------|-------------|------------|-------------|----0-5-8-6--|
|------1---3---|---1-----3---|----1---3---|---1-----3---|----------5--|
|------0---3---|---0-----5---|----0---3---|---0-----5---|----------5--|
|------2-----2-|-----2-----4-|----2-----2-|-----2-----4-|-------------|
|--0-----------|-0-----------|-0----------|-0-----------|-0-----------|
|--------0-----|-------0-----|------0-----|-------0-----|------0------|

|-----5---------|----0------|-------------|-------------|----7---------12---|
|-------5-----5-|-6--0-3--1-|-^0--0---3---|---0-----3---|----0------0-------|
|---------5h7---|-5--0-3--1-|-^2--2---3---|---2-----3---|----0------0-------|
|---------------|-7----3--1-|-^0--0-----2-|-----0-----2-|-------------------|
|--0------------|-----------|-------------|-------------|-------------------|
|---------------|-----------|-^3----0-----|-3-----0-----|-3-----0-----------|

|-10p9----9-------|-7-----7-------12-|
|------12---10-12-|----0-------0-----|
|-----------------|----0-------0-----|
|-----------------|------------------|
|--0--------------|------------------|
|-----------------|-3-------0--------|

|-10p9----9-5-4-|----------------|--------------|
|------12-------|-------6----7---|---6-----4----|
|---------------|-------6----7---|---6-----4----|
|---------------|-------5------6-|-----5-----4--|
|--0------------|--4-------------|-4------------|
|---------------|----------4-----|-------4------|

|-4------------7-|-5p4-2-4-0---|-----------------|---3---0-----|-------------|
|-----2----------|-----------3-|-----------------|---3-6---3-1-|-0--0---3----|
|-----2-----6----|-------------|-------0------0--|---3-------0-|-2--2---3----|
|-----2-----7----|-------------|-------3------3--|-----------2-|-0--0-----3--|
|-0---------7----|-0-----------|--1--------------|-3-----------|-------------|
|--------0-------|-------------|----------3------|-------------|-3----3------|

|-------------|---------3-|-2p0---0-2---|-0---0-------1-|---0---2-0----|
|---0-----3---|-^0----3---|-----3-----3-|---------------|-----4-----0--|
|---2-----3---|-^2--------|-------------|-2p0----0--2---|-3------------|
|-----0-----3-|-^0--------|-------------|-----3-------3-|-4------------|
|-------------|-----------|-------------|---------------|--------------|
|-3-----3-----|-^3--------|-------------|---------------|--------------|

|------------7-|-9-----7--------|-0---0---0---|-5-----3-------|--------------|
|---5-7-9-10---|---------10-9-7-|-9---9---9---|-------3-7p5-3-|-5---5---5----|
|-6------------|-------7--------|-------------|-------3-------|-5---5---5----|
|-7------------|----7-----------|-8---8---8---|----3----------|-4---5---5----|
|--------------|-7--------------|-------------|-3-------------|---3---5---7--|
|--------------|----------------|---0---0---0-|---------------|--------------|

|-----0-----0-|-----0-----0--||------------|
|-------8-----|-6-----5------||----2---3---|
|-------------|-------------*||----2---3---|
|-------------|-------------*||----3-----2-|
|---7-----7---|---7-----7----||-0----------|
|-0-----------|--------------||------0-----|

|-------------|------------|-------------|
|---2-----3---|----2---3---|---2-----3---|
|---2-----3---|----2---3---|---2-----3---|
|-----3-----2-|----3-----2-|-----3-----2-|
|-0-----------|-0----------|-0-----------|
|-------0-----|------0-----|-------0-----|

|------------|---------------|-^3--1-------|-------------|--------------|
|--------7-5-|-5-3--5--3-5-3-|-^1----4-3-1-|-^0--0---3-3-|-0-0-0---3-3--|
|------6-----|---4---------4-|-^2----------|-^1--1---2-2-|-0-0-0---2-2--|
|----5-------|---3---------3-|-^1----------|-^4--4---4-4-|-4-4-4---4-4--|
|-0----------|-0-------------|--0----------|-^2----2-----|-------2------|
|------0-----|---------0-----|-------------|-^0----------|-0------------|

|-------------|-------------|-------------|-------------|---------2-2--|
|-0-0-0---3-3-|-0-0-0-3-3-3-|-0-0-0---3-3-|-0-0-0---3-3-|-0-0-0---2-2--|
|-0-0-0---2-2-|-0-0-0-2-2-2-|-0-0-0---2-2-|-0-0-0---2-2-|-0-0-0---2-2--|
|-4-4-4---4-4-|-4-4-4-4-4-4-|-4-4-4---4-4-|-4-4-4---4-4-|-4-4-4--------|
|-------2-----|-------2-----|-------2-----|-------2-----|-------2------|
|-0-----------|-0-----------|-0-----------|-0-----------|-0------------|

|-0-0-0-7-7-7-|-0-0-0---0-0-|-------4-4-4-|-------------|-------0-0-0--|
|-0-0-0-7-7-7-|-0-0-0---0-0-|-6-6-6-4-4-4-|-2-2-2---2-2-|-3-3-3-1-1-1--|
|-0-0-0-7-7-7-|-0-0-0---0-0-|-6-6-6-4-4-4-|-2-2-2---2-2-|-0-0-0--------|
|-------0-----|-------------|-6-6-6-------|-2-2-2---2-2-|-3-3-3-4-4-4--|
|-3-----------|-8---6-------|-------------|-------------|--------------|
|-------------|-------9---7-|-6-----5-----|-3-----2-----|-1-----0------|

|-7------------12-|-10-9----9-5-2-|-2-------------|
|-----0-----0-----|------12-------|-----2------2--|
|-----0-----0-----|---------------|-----2------2--|
|-----------------|---------------|---------------|
|-----------------|--0------0-----|-2-------------|
|-3------0--------|---------------|--------2------|

|---^7-6-4-----|-------------------|
|---^5-----7-5-|-3---------2-------|
|---^4---------|-----5---------3---|
|---^6---------|-----4---------3---|
|-4------------|-0------0----------|
|--------------|-------------------|

|----------3S8-|-5----------8-|-5----------5-|-3p1-----3---|--------------|
|-1--------1---|-----6----8---|-----6----3---|-1---4-6---4-|-2-----3------|
|-----0----0---|-----5----8---|-----5----3---|-1-----------|-3-2-0--------|
|-----1--------|--------------|--------------|-0-----------|-------3-2-0--|
|-0------0-----|-5------0-----|-5------0-----|-------------|--------------|
|--------------|--------------|--------------|-------------|--------------|

|-------0-2-3-|-7p5------7-8-|-<12>----10-----|
|-4-----0-2-0-|-----8-10-----|-<12>----10-----|
|-------0-2-0-|--------------|-<12>----10-----|
|-------------|--------------|----------------|
|-3-2-0-------|-0------------|----------------|
|-------3-2-0-|--------------|-------8------8-|

|--8--------------|----------------|
|--8-----11---9-8-|--9------8------|
|--8-----10---8-8-|--8------8------|
|--------11--10-9-|-10------8------|
|-----------------|----------------|
|------8--------8-|------8------8--|

|----------------|-------------|-------------|------------|--------5---|
|--6------8p=6---|-------------|---------0-1-|-2--2---3---|-5--5---5---|
|--6-----------8-|-6-5---------|-------0-----|-2--2---3---|-5--5---5---|
|--6-------------|-----8-6p5-3-|-----3-------|-3--3-----2-|-4--4-------|
|----------------|-------------|---2---------|-0----------|-0----------|
|------8---------|-------------|-0-----------|------0-----|------0-----|

|-3-2---2---0-|-------------|-------4-------|-------------|-----------0----|
|-----5---3---|------1----3-|----4----6-4-6-|-3h4-3-1h3---|-^0--0----------|
|-------------|------0----5-|----4----------|-3-----1---2-|-^2--2-------2--|
|-------------|------2----4-|----4----------|-3-----1-----|-^0--0----------|
|-2-----------|--1-----0----|---------------|-3-----1-----|----------------|
|-------------|-------------|-4-------------|-------------|-^3-----1-------|

|----------0---|-------------|-5-7-8-9-10-11-|
|-0--0---------|-0-1-3-5-7-8-|---------------|
|-2--2-------2-|-2-----------|---------------|
|-0--0---------|-0-----------|---------------|
|--------------|-------------|---------------|
|-3-----1------|-3-----------|---------------|

|-<12>------------------|-<12>------<5>---|-----------||
|------------------<12>-|-------<5>-------|-----------||
|-----------------------|-----------------|-----------||
|-----------------------|-----------------|-----------||
|------------<12>-------|-----------------|-----------||
|-------<12>------------|-----------------|-<12>------||
Добавлено: 04.03.2012
Другие материалы по этой песне:
  • Аккорды и текст

Страница создана 04.03.2012
http://primanota.ru/antonio-lauro/venezuelan-suite-no-2-danza-negra-chords.htm
Привет, Гость.
Предлагаем пройти революционный курс по гитаре.
Подарок от PrimaNota.Ru, забирай!