PrimaNota.ru - самый крупный в мире бесплатный архив песенных текстов, аккордов, табулатур и нот


Antonio Lauro - Venezuelan Suite - No 3 - Cancion - таба, видео

Регистрация Запомнить меня
Войти через:  Facebook Google Twitter Vk Yandex Mail.ru

Antonio Lauro - Venezuelan Suite - No 3 - Cancion - таба, видео

Печатать
Просмотров: 155
Suite Venezolana III, Cancion - Antonio Lauro (1917-1986)

|-----------|-------------|-----------|-0----------0-|-----------|
|------0----|-0---------0-|------0----|-------^-3----|-------0---|
|---------2-|--------2----|---------2-|-------^-0----|---------2-|
|---0-------|--------0----|---0-------|-------^-4----|----0------|
|-----------|----3--------|-----------|----2---------|-----------|
|-3---------|-1-----------|-3---------|-0------------|-3---------|

|-------------|-------------|---------|----------|--------10-8-|
|-6---------5-|-3---------2-|-1-------|----------|------8------|
|--------3----|--------4----|-----0---|----------|---------9---|
|----5--------|----2--------|---0---3-|-7-5-10-8-|-<12>--------|
|-------------|-0-----------|-1-------|----------|-------------|
|-0-----------|-------------|---------|----------|-------------|

|--------7-5-|-------------|-------------|----------|------------|
|------5-----|-3---------1-|-5---------3-|-5-6-8-10-|-<12>-------|
|--------5---|--------3----|--------3----|----------|----------0-|
|-<12>-------|----2--------|----3--------|----------|--------3---|
|------------|-0-----------|-------------|----------|------2-----|
|------------|-------------|-3-----------|----------|---0--------|

|---------|------------|-----------8-|--------------|-----------6-|
|---------|------------|--------8----|-11------9--8-|--------6----|
|-2-4-5-7-|-8----------|--------8----|---------8----|--------6----|
|---------|------12----|-------12----|----10--------|-------10----|
|---------|---10----10-|---10--------|--8-----------|----8--------|
|---------|-8----------|-8-----------|--------------|-6-----------|

|-^5-------|-----------|-----------|---------|------8-10-|
|-^3-6-5-3-|------2----|------3----|-----5-7-|-8-10------|
|-^4-------|------2----|------3----|-----5---|-----------|
|-^3-------|---1-----1-|---2-----2-|---4-----|-----------|
|-^0-------|-0---------|-----------|-0-------|-----------|
|----------|-----------|-0---------|---------|-----------|

|-12-----11------|---------------|-----------|---------|---------|
|---------9--13--|-12-10---9-----|-----------|-----7---|-5-7-5---|
|---------9------|---------9--11-|-9----7----|---7---7-|-6-7-6---|
|----------------|---------9-----|------7----|-----7---|---------|
|----11------11--|----11---------|---9-----9-|---9---9-|---------|
|--9-------------|--9------------|-7---------|-7-------|-0-----0-|

|---------|---------|---------|---------|-------------|
|-----7---|-5-7-5---|-----5---|-3-------|-0-----0-----|
|---7---7-|-5-7-5---|---5---5-|-4-4-6-2-|----------2--|
|-----7---|---------|-----5---|---5-7-3-|----0--------|
|---9---9-|---------|---7---7-|---------|-------------|
|-7-------|-0-----0-|-5-------|-0-------|-3-----------|

|-------------|-------------|-0---------0-|-1-----0-1-|-2------3--5-|
|-0---------0-|-------0-----|--------3----|----0------|-------------|
|--------2----|----------2--|--------0----|----0------|----2---4----|
|--------0----|----0--------|--------4----|-1---------|-0-----------|
|----3--------|-------------|----2--------|-----------|-------------|
|-1-----------|-3-----------|-0-----------|-----------|-------------|

|-6-------|----------|----------|-4-------|-----------|
|-----4---|----------|------7-8-|---------|-----------|
|-------6-|-8------8-|-9----7-9-|-----5---|-5-7--9-11-|
|---4-----|-----11---|---10-----|-------8-|-7-9-10-12-|
|-4-------|---9------|-0--------|---6-----|-----------|
|---------|-7--------|----------|-4-------|-5---------|

|-------------|-------------|---------|---------|---------|
|-------------|-------------|---------|-------3-|-5-6-3-5-|
|-9----8------|-7----6------|-5-------|---3-5---|---------|
|------7------|------5------|-----3---|-----3---|-----3---|
|---9------9--|---7------7--|---5---5-|---5---5-|---5---5-|
|-7-----------|-5-----------|-3-------|-3-------|-3-------|

|-----------|---------|---------|---------|---------|
|-1-----0-1-|-2---3---|-4---4-2-|-4-6-7-9-|-6-2-4---|
|----0------|---4---3-|---------|-4-------|-------4-|
|----2------|---3---3-|---4-----|-4-------|---------|
|-0---------|---------|-------2-|-0-------|---------|
|-----------|-4---3---|-2-------|---------|---------|

|---------|--------0------|----------|--------------|----------|
|-3---1---|-0------0------|-----10-8-|--8-----------|--------8-|
|-3-4-0-2-|-1------0------|----------|-----8-----8--|---8-10---|
|-3---1---|-4-------------|---9------|-----9-----9--|---8------|
|-0---0---|----2---9---7--|-9------7-|--------------|----------|
|---------|-0-------------|----------|-10-----8-10--|-8--------|

|--------------|------------|-----------|-------------|---------|
|-10----7------|-8--------8-|-7------0--|-2---------2-|-0-------|
|-----------9--|-------9----|-----6-----|--------2----|-0-2-1-2-|
|----7---------|---10-------|-----------|--------2----|-0-------|
|--------------|-0----------|---7-------|----4--------|---------|
|--7-----------|------------|-4---------|-2-----------|-1-------|

|-------------|---------|--------------|---9-------|-12-----10--|
|-5----4------|-2-----0-|-12---11------|-----12-11-|------7-----|
|------4------|-2-4-3---|-------9------|-----------|---------9--|
|---5------5--|-2-------|----9---------|-----------|----7-------|
|-------------|---------|----------11--|-----------|------------|
|-0-----------|-3-------|--9-----------|-9---------|--7---------|

|-0---------|-----6-5-|-3-------|-----------------|-------------|---------|
|-----------|---3-3---|-1-------|--------<12>-----|-<12>--------|---------|
|-----------|-----3---|-1-------|-----------------|-------------|-----6-7-|
|----0--8-7-|-5---3---|-1---3-1-|-0-<12>------<7>-|-------------|-7-9-----|
|-0---------|---------|---0-----|-----------------|--------10-9-|-8---7---|
|-----------|---------|---------|-----------------|---0--8------|---------|

|----------|-----------|---------|-----------|---------|
|-5-7-8-10-|-12--------|-----8-7-|-6---------|-5-7-3-5-|
|-6--------|--9--------|---0-----|----0--8-6-|-5---3---|
|-5---9----|-10--------|---------|-----------|---------|
|-5--------|----0-10-9-|-7-----5-|-4---------|---------|
|-----7----|-----------|---------|-----------|-5---3---|

|---------|---------------|---------0-|-----------|-----------|
|-1-------|-0-------------|------0----|-3----1--0-|-----------|
|-1---3-2-|-1-------------|------0----|------0----|-2----0--2-|
|---0-----|--------4------|------4----|---2-------|------0----|
|---------|----2-------2--|---2-------|-0---------|---3-------|
|-1-------|-0-------------|-0---------|-----------|-1---------|

|-----------|------0----|--------------|-------------|-<7>-------|---------||
|-----------|-3----0--6-|-8-----10-11--|-12---0-<12>-|-----------|---------||
|-3----5--6-|------0----|--------8-----|-------------|-----------|---------||
|------3----|---0-------|----8---------|-------------|-----------|---------||
|---5-------|-----------|-8------------|-------------|-----------|---------||
|-3---------|-1---------|--------------|--0-7--------|------<7>--|-<12>----||
Добавлено: 03.05.2012
Другие материалы по этой песне:
  • Аккорды и текст

Страница создана 03.05.2012
http://primanota.ru/antonio-lauro/venezuelan-suite-no-3-cancion-chords.htm
Привет, Гость.
Предлагаем пройти революционный курс по гитаре.
Подарок от PrimaNota.Ru, забирай!