PrimaNota.ru - самый крупный в мире бесплатный архив песенных текстов, аккордов, табулатур и нот


Anthrax - Among The Living - текст песни, таба, бас-таба, видео

Регистрация Запомнить меня
Войти через:  Facebook Google Twitter Vk Yandex Mail.ru

Anthrax - Among The Living - текст песни, таба, бас-таба, видео

Печатать
Просмотров: 158
Авторы: Charlie Benante, Scott Ian, Dan Spitz, Frank Bello, Joey Belladonna

As recorded by Anthrax
(From the 1987 Album AMONG THE LIVING)

Transcribed by cbliss66@aol.com
	

Words by Joey Belladonna Music by Anthrax
Arranged by Anthrax

Gtr I (E A D G B E) - 'Spitz Clean'
Gtr II (E A D G B E) - 'Ian Dirty'
Gtr III (E A D G B E) - 'Spitz Dirty'
Gtr IV (E A D G B E) - 'Extra dubbed guitar'
Gtr V (E A D G B E) - 'Harmonics'

   Intro
    Moderately Fast Rock Q=126
         B                                B
   4/4
    Gtr I
    Q.   E  Q    Q     +W            Q.   E Q   Q     +W
||---------------0---|-(0)--------|------------(0)--|-(0)-----||
||o------0-(0)---0---|-(0)--------|-------0-0---0---|-(0)----o||
||-------4--3--------|------------|-------4-3---3---|-(3)-----||
||-------------------|------------|-----------------|---------||
||o------2--1---(1)--|-(1)--------|-------2-1--(1)--|-(1)----o||
||--0----------------|------------|--0--------------|---------||
|
|   Gtr II
|   W                  +W           +W                +W
||-------------------|------------|-----------------|---------||
||o------------------|------------|-----------------|--------o||
||-------------------|------------|-----------------|---------||
||-------------------|------------|-----------------|---------||
||o------------------|------------|-----------------|--------o||
||--0----------------|-(0)--------|-(0)-------------|-(0)-----||


    E5   B5Bb5B5                E5   B5Bb5E5
    Gtrs II, III
    Q.   E Q  Q    +W           Q.   E Q  Q    +W
||---------------|------------|--------------|---------||
||o--------------|------------|--------------|--------o||
||-------4-3--4--|-(4)--------|------4-3-----|---------||
||--2----4-3--4--|-(4)--------|-2----4-3--2--|-(2)-----||
||o-2----2-1--2--|-(2)--------|-2----2-1--2--|-(2)----o||
||--0------------|------------|-0---------0--|-(0)-----||


  Slightly Faster Q=128
  E5   B5 Bb5 B5                          E5   B5 Bb5 E5
  Gtr III
                                                       ~~~~~~~~~~
  Q.    E  Q   Q     +Q    +H.            Q.    E  Q   Q     +W
|-----------------|---------------------|-------------12--|-(12)----|
|------12-11--12--|-(12)--(12tr13)------|------12-11------|---------|
|-9---------------|---------------------|-9------------9--|--(9)----|
|-------9--8---9--|--(9)---(9tr10)------|-------9--8------|---------|
|-7---------------|---------------------|-7---------------|---------|
|-----------------|---------------------|-----------------|---------|
|
| Gtr II
| Q.    E  Q   Q     +W                   Q.    E  Q   Q     +W
|-----------------|---------------------|-----------------|---------|
|-----------------|---------------------|-----------------|---------|
|-------4--3---4--|--(4)----------------|-------4--3------|---------|
|-2-----4--3---4--|--(4)----------------|-2-----4--3---2--|--(2)----|
|-2-----2--1---2--|--(2)----------------|-2-----2--1---2--|--(2)----|
|-0---------------|---------------------|-0------------0--|--(0)----|


  E5   B5 Bb5 B5                             E5   B5 Bb5 E5
                                     ~~~~                 ~~~~~~~~~~
  Q.    E  Q   Q     +Q.    +E      +H       Q.    E  Q   Q     +W
|-----------------|------------------------|-------------12--|-(12)----||
|------12-11--12--|-(12)---(12)b13r(12)----|------12-11------|---------||
|-9---------------|------------------------|-9------------9--|--(9)----||
|-------9--8---9--|--(9)----(9)b10r=(9)----|-------9--8------|---------||
|-7---------------|------------------------|-7---------------|---------||
|-----------------|------------------------|-----------------|---------||
|
| Q.    E  Q   Q     +W                      Q.    E  Q   Q     +W
|-----------------|------------------------|-----------------|---------||
|-----------------|------------------------|-----------------|---------||
|-------4--3---4--|--(4)-------------------|-------4--3------|---------||
|-2-----4--3---4--|--(4)-------------------|-2-----4--3---2--|--(2)----||
|-2-----2--1---2--|--(2)-------------------|-2-----2--1---2--|--(2)----||
|-0---------------|------------------------|-0------------0--|--(0)----||


  Faster Q=138
  E5     B5Bb5B5   F5                  E5   B5Bb5B5   Bb  B   Bb  B
  Gtr III
   >
   ~~~~~~~~~~~~~~~~~~~~
  +W               +W                  W              W
|----------------|-------------------|--------------|-----------------|
|----------------|-------------------|--------------|-----------------|
|-(9)------------|-(9)---------------|--------------|-----------------|
|----------------|-------------------|--------------|-----------------|
|----------------|-------------------|--------------|-----------------|
|----------------|-------------------|--------------|-----------------|
|
| Gtrs II, IV
|                   PM-------------|                  PM------------|
|  Q   E E Q  Q     E  E E E E E E E   Q  E E Q  Q    E E E E E E E E
|----------------|-------------------|--------------|-----------------|
|----------------|-------------------|--------------|-----------------|
|--------4-3--4--|-------------------|------4-3--4--|-----------------|
|--2-----4-3--4--|-------------------|-2----4-3--4--|-0-0-1-1-0-0-1-1-|
|--2-----2-1--2--|--3--3-3-3-3-3-3-3-|-2----2-1--2--|-1-1-2-2-1-1-2-2-|
|--0-------------|--1--1-1-1-1-1-1-1-|-0------------|-----------------|


                                                  H=H
  E5   B5Bb5B5   E5                E5   B5Bb5B5   Bb  B   C   C#G5
  Gtrs II, III
                 PM------------|                  PM------------|
  Q  E E Q  Q    E E E E E E E E   Q  E E Q  Q    E E E E E E E E
|--------------|-----------------|--------------|-----------------|
|--------------|-----------------|--------------|-----------------|
|------4-3--4--|-----------------|------4-3--4--|-----------------|
|-2----4-3--4--|-----------------|-2----4-3--4--|-0-0-1-1-2-2-6---|
|-2----2-1--2--|-2-2-2-2-2-2-2-2-|-2----2-1--2--|-1-1-2-2-3-3-4-5-|
|-0------------|-0-0-0-0-0-0-0-0-|-0------------|---------------3-|


  Slightly Faster Q=140
  E5   B5Bb5B5   F5                E5   B5Bb5B5   Bb  B   Bb  B
                 PM------------|                  PM------------|
  Q  E E Q  Q    E E E E E E E E   Q  E E Q  Q    E E E E E E E E
|--------------|-----------------|--------------|-----------------|
|--------------|-----------------|--------------|-----------------|
|------4-3--4--|-----------------|------4-3--4--|-----------------|
|-2----4-3--4--|-----------------|-2----4-3--4--|-0-0-1-1-0-0-1-1-|
|-2----2-1--2--|-3-3-3-3-3-3-3-3-|-2----2-1--2--|-1-1-2-2-1-1-2-2-|
|-0------------|-1-1-1-1-1-1-1-1-|-0------------|-----------------|


                                                  Accelerate Q=141
  E5   B5Bb5B5   F5                E5   B5Bb5B5   Bb  B   C   C#Eb5
                 PM------------|                  PM----------|
  Q  E E Q  Q    E E E E E E E E   Q  E E Q  Q    E E E E E E E E
|--------------|-----------------|--------------|-----------------|
|--------------|-----------------|--------------|-----------------|
|------4-3--4--|-----------------|------4-3--4--|---------------8-|
|-2----4-3--4--|-----------------|-2----4-3--4--|-0-0-1-1-2-2-6-8-|
|-2----2-1--2--|-3-3-3-3-3-3-3-3-|-2----2-1--2--|-1-1-2-2-3-3-4-6-|
|-0------------|-1-1-1-1-1-1-1-1-|-0------------|-----------------|


  A5   D5G#5  D5  E5           G#5 D5   A5Eb5  G5  E5           Eb5
                     PM------|                        PM------|
  Q  E E Q  E E   Q  E E E E E E   Q  E E Q  E E   Q  E E E E E E
|---------------|----------------|---------------|----------------|
|---------------|----------------|---------------|----------------|
|------7------7-|----------------|-7------8------|--------------8-|
|-7--x-7-6--x-7-|-2------------6-|-7--x-7-8--x-5-|-2------------8-|
|-7--x-5-6--x-5-|-2------------6-|-5--x-7-6--x-5-|-2------------6-|
|-5--x---4--x---|-0--0-0-0-0-0-4-|----x-5----x-3-|-0--0-0-0-0-0---|


                                                 Fast Rock Q=200
  A5   D5G#5  D5  E5           G#5 D5   A5Eb5  G5   E5        Bb5
                     PM------|
  Q  E E Q  E E   Q  E E E E E E   Q  E E Q  E E    H..       E
|---------------|----------------|---------------||-------------|
|---------------|----------------|---------------||-------------|
|------7------7-|----------------|-7------8------||-----------3-|
|-7--x-7-6--x-7-|-2------------6-|-7--x-7-8--x-5-||-2---------3-|
|-7--x-5-6--x-5-|-2------------6-|-5--x-7-6--x-5-||-2---------1-|
|-5--x---4--x---|-0--0-0-0-0-0-4-|----x-5----x-3-||-0-----------|


  E5         BbE5          BbE5          BbE5
  W          E H..         E H..         E H..
|----------|-------------|-------------|----------||
|----------|-------------|-------------|----------||
|----------|-3-----------|-3-----------|-3--------||
|-2--------|-3-2---------|-3-2---------|-3-2------||
|-2--------|-1-2---------|-1-2---------|-1-2------||
|-0--------|---0---------|---0---------|---0------||


  G5      G#5     A5        G#5     A5      Bb5
 4/4
                    PM--|                     PM--|
  E +S  S E +S  S E E E E   E +S  S E +S  S E E E E
|-------------------------|-------------------------|
|-------------------------|-------------------------|
|-------------------------|-------------------------|
|-------------------------|-------------------------|
|-5-(5)---6-(6)---7-------|-6-(6)---7-(7)---8-------|
|-3-(3)---4-(4)---5-0-0-0-|-4-(4)---5-(5)---6-0-0-0-|


  G5      G#5     A5        G#5     A5      Bb5
                    PM--|                     PM--|
  E +S  S E +S  S E E E E   E +S  S E +S  S E E E E
|-------------------------|---------------------------|
|-------------------------|---------------------------|
|-------------------------|---------------------------|
|-------------------------|---------------------------|
|-5-(5)---6-(6)---7-------|-6-(6)---7-(7)---8---------|
|-3-(3)---4-(4)---5-0-0-0-|-4-(4)---5-(5)---6-0-0-0---|


  G5      G#5     A5        G#5     A5      Bb5
                    PM--|                     PM--|
  E +S  S E +S  S E E E E   E +S  S E +S  S E E E E
|-------------------------|-------------------------|
|-------------------------|-------------------------|
|-------------------------|-------------------------|
|-------------------------|-------------------------|
|-5-(5)---6-(6)---7-------|-6-(6)---7-(7)---8-------|
|-3-(3)---4-(4)---5-0-0-0-|-4-(4)---5-(5)---6-0-0-0-|


  G5      G#5     A5        G#5     A5      Bb5     B5
                    PM--|
  E +S  S E +S  S E E E E   E +S  S E +S  S E +S  S Q
|-------------------------|------------------------------|
|-------------------------|------------------------------|
|-------------------------|------------------------------|
|-------------------------|------------------------------|
|-5-(5)---6-(6)---7-------|-6-(6)---7-(7)---8-(8)---9----|
|-3-(3)---4-(4)---5-0-0-0-|-4-(4)---5-(5)---6-(6)---7----|


                1st and 2nd Verse
             Faster Q=205
                 Eb5   A5G#5 A5    Eb5   A5G#5 A5    Eb5   A5G#5 A5
                   PM|               PM|               PM|
  +W             E E E E E E E E   E E E E E E E E   E E E E E E E E
|------------||------------------|-----------------|------------------|
|------------||o-----------------|-----------------|------------------|
|------------||------------------|-----------------|------------------|
|------------||--8---------------|-8---------------|-8----------------|
|-(9)--------||o-6-----7s6---7---|-6-----7s6---7---|-6-----7s6---7----|
|-(7)--------||----0-0-5s4---5---|---0-0-5s4---5---|---0-0-5s4---5----|


  Eb5   A5G#5 A5    D5    A5G#5       D5    A5G#5 A5    D5    A5G#5 A5
    PM|               PM|               PM|               PM|
  E E E E E E E E   E E E E E E E E   E E E E E E E E   E E E E E E E E
|-----------------|-----------------|-----------------|------------------|
|-----------------|-----------------|-----------------|------------------|
|-----------------|-----------------|-----------------|------------------|
|-8---------------|-7---------------|-7---------------|-7----------------|
|-6-----7s6---7---|-5-----7s6---7---|-5-----7s6---7---|-5-----7s6---7----|
|---0-0-5s4---5---|---0-0-5s4---5---|---0-0-5s4---5---|---0-0-5s4---5----|


  D5    A5G#5 A5    Eb5   A5G#5 A5    Eb5   A5G#5 A5    Eb5   A5G#5 A5
    PM|               PM|               PM|               PM|
  E E E E E E E E   E E E E E E E E   E E E E E E E E   E E E E E E E E
|-----------------|-----------------|-----------------|------------------|
|-----------------|-----------------|-----------------|------------------|
|-----------------|-----------------|-----------------|------------------|
|-7---------------|-8---------------|-8---------------|-8----------------|
|-5-----7s6---7---|-6-----7s6---7---|-6-----7s6---7---|-6-----7s6---7----|
|---0-0-5s4---5---|---0-0-5s4---5---|---0-0-5s4---5---|---0-0-5s4---5----|


  Eb5   A5G#5 A5    D5    A5G#5       D5    A5G#5 A5    D5    A5G#5 A5
    PM|               PM|               PM|               PM|
  E E E E E E E E   E E E E E E E E   E E E E E E E E   E E E E E E E E
|-----------------|-----------------|-----------------|------------------|
|-----------------|-----------------|-----------------|------------------|
|-----------------|-----------------|-----------------|------------------|
|-8---------------|-7---------------|-7---------------|-7----------------|
|-6-----7s6---7---|-5-----7s6---7---|-5-----7s6---7---|-5-----7s6---7----|
|---0-0-5s4---5---|---0-0-5s4---5---|---0-0-5s4---5---|---0-0-5s4---5----|


                    Pre-Chorus
  D5    A5G#5 A5     G5 G#5A5        G#5A5 Bb5       G5 G#5A5
                             PM--|           PM--|           PM--|
  E E E E E E E E    Q  Q  E E E E   Q  Q  E E E E   Q  Q  E E E E
|-----------------||---------------|---------------|----------------|
|-----------------||---------------|---------------|----------------|
|-----------------||---------------|---------------|----------------|
|-7---------------||---------------|---------------|----------------|
|-5-----7s6---7---||-5--6--7-------|-6--7--8-------|-5--6--7--------|
|---0-0-5s4---5---||-3--4--5-0-0-0-|-4--5--6-0-0-0-|-3--4--5-0-0-0--|


  G#5A5 Bb5       G5 G#5A5        G#5A5 Bb5       G5 G#5A5
          PM--|           PM--|           PM--|           PM--|
  Q  Q  E E E E   Q  Q  E E E E   Q  Q  E E E E   Q  Q  E E E E
|---------------|---------------|---------------|----------------|
|---------------|---------------|---------------|----------------|
|---------------|---------------|---------------|----------------|
|---------------|---------------|---------------|----------------|
|-6--7--8-------|-5--6--7-------|-6--7--8-------|-5--6--7--------|
|-4--5--6-0-0-0-|-3--4--5-0-0-0-|-4--5--6-0-0-0-|-3--4--5-0-0-0--|


  1.                          2.
  G#5A5 Bb5B5                     G#5A5 Bb5B5
  Q  Q  Q  Q    +W                Q  Q  Q  Q
|-------------|-------------||-||-------------|
|-------------|------------o||-||-------------|
|-------------|-------------||-||-------------|
|-------------|-------------||-||-------------|
|-6--7--8--9--|-(9)--------o||-||-6--7--8--9--|
|-4--5--6--7--|-(7)---------||-||-4--5--6--7--|


 Chorus
  Slower Q=155
  E5   B5Bb5B5   F5                E5   B5Bb5B5   E5
                 PM------------|                  PM|     PM|
  Q  E E Q  Q    E E E E E E E E   Q  E E Q  Q    E E E E E E E E
|--------------|-----------------|--------------|-----------------|
|--------------|-----------------|--------------|-----------------|
|------4-3--4--|-----------------|------4-3--4--|-----------------|
|-2----4-3--4--|-----------------|-2----4-3--4--|-----------------|
|-2----2-1--2--|-3-3-3-3-3-3-3-3-|-2----2-1--2--|-2-2---3-2-2---3-|
|-0------------|-1-1-1-1-1-1-1-1-|-0------------|-0-0-3---0-0-3---|


  E5   B5Bb5B5   F5                E5   B5Bb5B5   Bb  B   C   C#Eb5
                 PM------------|                  PM----------|
  Q  E E Q  Q    E E E E E E E E   Q  E E Q  Q    E E E E E E E E
|--------------|-----------------|--------------|-----------------|
|--------------|-----------------|--------------|-----------------|
|------4-3--4--|-----------------|------4-3--4--|---------------8-|
|-2----4-3--4--|-----------------|-2----4-3--4--|-0-0-1-1-2-2-6-8-|
|-2----2-1--2--|-2-2-2-2-2-2-2-2-|-2----2-1--2--|-1-1-2-2-3-3-4-6-|
|-0------------|-0-0-0-0-0-0-0-0-|-0------------|-----------------|


                             3rd and 4th Verse
                           Faster Q=206
                           $
  A5   D5G#5  D5  E5          Eb5   A5G#5 A5    Eb5   A5G#5 A5
                                PM|               PM|
  Q  E E Q  E E   W           E E E E E E E E   E E E E E E E E
|---------------|----------||-----------------|------------------||
|---------------|----------||-----------------|------------------||
|------7------7-|----------||-----------------|------------------||
|-7--x-7-6--x-7-|-2--------||-8---------------|-8----------------||
|-7--x-5-6--x-5-|-2--------||-6-----7s6---7---|-6-----7s6---7----||
|-5--x---4--x---|-0--------||---0-0-5s4---5---|---0-0-5s4---5----||


  Eb5   A5G#5 A5    Eb5   A5G#5 A5    D5    A5G#5 A5    D5    A5G#5 A5
    PM|               PM|               PM|               PM|
  E E E E E E E E   E E E E E E E E   E E E E E E E E   E E E E E E E E
|-----------------|-----------------|-----------------|------------------|
|-----------------|-----------------|-----------------|------------------|
|-----------------|-----------------|-----------------|------------------|
|-8---------------|-8---------------|-7---------------|-7----------------|
|-6-----7s6---7---|-6-----7s6---7---|-5-----7s6---7---|-5-----7s6---7----|
|---0-0-5s4---5---|---0-0-5s4---5---|---0-0-5s4---5---|---0-0-5s4---5----|


  D5    A5G#5 A5    D5    A5G#5 A5    Eb5   A5G#5 A5    Eb5   A5G#5 A5
    PM|               PM|               PM|               PM|
  E E E E E E E E   E E E E E E E E   E E E E E E E E   E E E E E E E E
|-----------------|-----------------|-----------------|------------------|
|-----------------|-----------------|-----------------|------------------|
|-----------------|-----------------|-----------------|------------------|
|-7---------------|-7---------------|-8---------------|-8----------------|
|-5-----7s6---7---|-5-----7s6---7---|-6-----7s6---7---|-6-----7s6---7----|
|---0-0-5s4---5---|---0-0-5s4---5---|---0-0-5s4---5---|---0-0-5s4---5----|


  Eb5   A5G#5 A5    Eb5   A5G#5 A5    D5    A5G#5 A5    D5    A5G#5 A5
    PM|               PM|               PM|               PM|
  E E E E E E E E   E E E E E E E E   E E E E E E E E   E E E E E E E E
|-----------------|-----------------|-----------------|------------------|
|-----------------|-----------------|-----------------|------------------|
|-----------------|-----------------|-----------------|------------------|
|-8---------------|-8---------------|-7---------------|-7----------------|
|-6-----7s6---7---|-6-----7s6---7---|-5-----7s6---7---|-5-----7s6---7----|
|---0-0-5s4---5---|---0-0-5s4---5---|---0-0-5s4---5---|---0-0-5s4---5----|


                                      Pre-Chorus
  D5    A5G#5 A5    D5    A5G#5 A5     G5 G#5A5        G#5A5 Bb5
    PM|               PM|                      PM--|           PM--|
  E E E E E E E E   E E E E E E E E    Q  Q  E E E E   Q  Q  E E E E
|-----------------|-----------------||---------------|----------------|
|-----------------|-----------------||---------------|----------------|
|-----------------|-----------------||---------------|----------------|
|-7---------------|-7---------------||---------------|----------------|
|-5-----7s6---7---|-5-----7s6---7---||-5--6--7-------|-6--7--8--------|
|---0-0-5s4---5---|---0-0-5s4---5---||-3--4--5-0-0-0-|-4--5--6-0-0-0--|


  G5 G#5A5        G#5A5 Bb5       G5 G#5A5        G#5A5 Bb5
          PM--|           PM--|           PM--|           PM--|
  Q  Q  E E E E   Q  Q  E E E E   Q  Q  E E E E   Q  Q  E E E E
|---------------|---------------|---------------|----------------|
|---------------|---------------|---------------|----------------|
|---------------|---------------|---------------|----------------|
|---------------|---------------|---------------|----------------|
|-5--6--7-------|-6--7--8-------|-5--6--7-------|-6--7--8--------|
|-3--4--5-0-0-0-|-4--5--6-0-0-0-|-3--4--5-0-0-0-|-4--5--6-0-0-0--|


                                Chorus
                              Slower Q=155
  G5 G#5A5        G#5A5 Bb5B5    E5   B5Bb5B5   F5
          PM--|                                 PM------------|
  Q  Q  E E E E   Q  Q  Q  Q     Q  E E Q  Q    E E E E E E E E
|---------------|-------------||--------------|------------------|
|---------------|-------------||--------------|------------------|
|---------------|-------------||------4-3--4--|------------------|
|---------------|-------------||-2----4-3--4--|------------------|
|-5--6--7-------|-6--7--8--9--||-2----2-1--2--|-3-3-3-3-3-3-3-3--|
|-3--4--5-0-0-0-|-4--5--6--7--||-0------------|-1-1-1-1-1-1-1-1--|


  E5   B5Bb5B5   E5                     B5Bb5B5   F5
                 PM|     PM|                      PM------------|
  Q  E E Q  Q    E E E E E E E E   Q  E E Q  Q    E E E E E E E E
|--------------|-----------------|--------------|-----------------|
|--------------|-----------------|--------------|-----------------|
|------4-3--4--|-----------------|------4-3--4--|-----------------|
|-2----4-3--4--|-----------------|-2----4-3--4--|-----------------|
|-2----2-1--2--|-2-2---3-2-2---3-|-2----2-1--2--|-3-3-3-3-3-3-3-3-|
|-0------------|-0-0-3---0-0-3---|-0------------|-1-1-1-1-1-1-1-1-|


                          To Coda
  E5   B5Bb5B5   Bb  B   C   C#Eb5 A5   D5G#5  D5  E5        Eb5
                 PM----------|
  Q  E E Q  Q    E E E E E E E E   Q  E E Q  E E   H..       E
|--------------|-----------------|---------------|-------------|
|--------------|-----------------|---------------|-------------|
|------4-3--4--|---------------8-|------7------7-|-----------8-|
|-2----4-3--4--|-0-0-1-1-2-2-6-8-|-7--x-7-6--x-7-|-2---------8-|
|-2----2-1--2--|-1-1-2-2-3-3-4-6-|-7--x-5-6--x-5-|-2---------6-|
|-0------------|-----------------|-5--x---4--x---|-0-----------|


                  Guitar Solo
                Faster Q=160
  A5   D5G#5  E5   F#5              F5             F#5      E5
  Gtr III
                                                    ~~~~
  W                 E     +H.                +E     H..              +E
|---------------||-------------------------------|------------------------|
|---------------||-12b13r(12)b14============(12)-|-12---------------(12)r-|
|---------------||-------------------------------|------------------------|
|---------------||-------------------------------|------------------------|
|---------------||-------------------------------|------------------------|
|---------------||-------------------------------|------------------------|
|
| Gtrs II, IV
|                                                               PM--|
| Q  E E Q  E E     E      E      E E E E E   E     E   E E E E E E   E
|---------------||-------------------------------|------------------------|
|---------------||-------------------------------|------------------------|
|------7--------||-------------------------------|------------------------|
|-7--x-7-6--x-2-||--4-------------4-3---3-----3--|--4-----4-2-------------|
|-7--x-5-6--x-2-||--4-------------4-3---3-----3--|--4-----4-2-------------|
|-5--x---4--x-0-||--2-------------2-1---1-----1--|--2-----2-0---0-0---0---|


  F#5         F5
                     |--3--|
   S  S  E  E  E  E  S  S  S  E  E
|----------------------------------|
|-13p12p10-13-12-------------------|
|----------------13-12h13p12p10-13-|
|----------------------------------|
|----------------------------------|
|----------------------------------|
|
|  E     E  E  E  E  E        E  E
|----------------------------------|
|----------------------------------|
|----------------------------------|
|--4--------4--3-----3-----------3-|
|--4--------4--3-----3-----------3-|
|--2--------2--1-----1-----------1-|


  F#5        E5            F#5      F5
                    PM|
   H.               E  E    E  E  Q    E  E  E  E
|------------------------|------------------------|
|------------------------|------------------------|
|-12tr13-----------12-10-|-12-13-12---12-13-12----|
|------------------------|---------------------10-|
|------------------------|------------------------|
|------------------------|------------------------|
|
|                PM---|
|  E     E E E E E  E  E    E  E  E E  E  E  E  E
|------------------------|------------------------|
|------------------------|------------------------|
|------------------------|------------------------|
|--4-------4-2-----------|--4-----4-3-----3-----3-|
|--4-------4-2-----------|--4-----4-3-----3-----3-|
|--2-------2-0---0--0--0-|--2-----2-1-----1-----1-|


  F#5      E5               F#5      F5               F#5       E5
                                      PM------|
   E  E  E  E  E  E  Q       E  E  E  E  E  E  E  E   H..               S  S
|-------------------------|-------------------------|-------------------8-10-|
|-------------------------|-------------------------|------------------------|
|-------------------------|-------------------------|------------------------|
|-12-13-12-10-12-13-12\---|-------------------------|------------------------|
|-------------------------|-12-13-12-------------10-|-9tr10------------------|
|-------------------------|----------14-13-12-10----|------------------------|
|
|                 PM----|                                           PM--|
|  E  E  E  E  E  E  E  E    E  E  E  E  E  E  E  E   E     E E E E E E E
|-------------------------|-------------------------|------------------------|
|-------------------------|-------------------------|------------------------|
|-------------------------|-------------------------|------------------------|
|--4-----4--2-------------|--4-----4--3-----3-----3-|-4-------4-2------------|
|--4-----4--2-------------|--4-----4--3-----3-----3-|-4-------4-2------------|
|--2-----2--0-----0--0--0-|--2-----2--1-----1-----1-|-2-------2-0---0-0-0----|


  A5              G#5
   S  S S  S  S S  S  S S  S  S S  S  S S  S
|-12-10-8----10-8-------8--------------------|
|---------12------12-10---12-10-8-12-10-8----|
|-----------------------------------------11-|
|--------------------------------------------|
|--------------------------------------------|
|--------------------------------------------|
|
|  E    E     E    E    E     E    E    E
|--------------------------------------------|
|--------------------------------------------|
|--------------------------------------------|
|--7----------7----6----------6---------6----|
|--7----------7----6----------6---------6----|
|--5----------5----4----------4---------4----|


  A5             G#5
   S S  S S S  S S S  S S S  S S S  S S
|----------------------------------------|
|-10-8------8----------------------------|
|------11-9---11-9-7-11-9-7----9-7-------|
|---------------------------10-----11-9--|
|----------------------------------------|
|----------------------------------------|
|
|                         PM-------|
|  E    E   E    E    E   E    E    E
|----------------------------------------|
|----------------------------------------|
|----------------------------------------|
|--7--------7----6-----------------------|
|--7--------7----6-----------------------|
|--5--------5----4--------4----4----4----|


  A5            G#5                      A5           G#5
                                 PM---------------------| ~
  S  S S S  S S S  S S S  S S S  S S S    S S S S S S S S H
|--------------------------------------|--------------------------|
|--------------------------------------|--------------------------|
|-7------------------------------------|--------------------------|
|---11-9-7-11-9-7----9-7------7--------|--------------------------|
|-----------------10-----10-9---10-9-7-|-10-9-7-5-7-9-5-7-9-------|
|--------------------------------------|--------------------------|
|
|                                                         PM----|
| E    E    E   E    E    E   E    E      E   E   E   E   E E E E
|--------------------------------------|--------------------------|
|--------------------------------------|--------------------------|
|--------------------------------------|--------------------------|
|-7---------7---6---------6--------6---|--7-------7---6-----------|
|-7---------7---6---------6--------6---|--7-------7---6---0-0-----|
|-5---------5---4---------4--------4---|--5-------5---4-------4-0-|


  E5         B5 Bb5         B5   Bb5         B5 Bb5       F5
  S E  E   S  E  E S  E   S  E    E S  E   S  E  H
|-x----------13------13--------|-13-------------------------|
|-x---15-----15-15---15-----15-|-15---15--------------------|
|-x---15-----15-15---15-----15-|-15---15-----15-15tr16------|
|-x----------------------------|----------------------------|
|------------------------------|----------------------------|
|------------------------------|----------------------------|
|
| Q      E    E  Q      E    E    Q      E    E  Q      E E
|------------------------------|----------------------------|
|------------------------------|----------------------------|
|-------------4--3-----------4-|--3-----------4--3----------|
|-2-----------4--3-----------4-|--3-----------4--3--------3-|
|-2-----------2--1-----------2-|--1-----------2--1--------3-|
|-0----------------------------|--------------------------1-|


  E5              B5Bb5        B5      Bb5       B5  Bb5
                      ~~~~~~~~~
   Q      +Q         +Q    +E   +E     E S E   S S S Q  +E   E
|-22b24r=(22)b24====(22)--(22)-(22)r-|-------------------------|
|------------------------------------|-------------------------|
|------------------------------------|-7---9-----7-------------|
|------------------------------------|---------------8--(8)\---|
|------------------------------------|-------------------------|
|------------------------------------|-------------------------|
|
|  Q       E      E   Q     E    E     Q     E   E   Q   E   E
|------------------------------------|-------------------------|
|------------------------------------|-------------------------|
|-----------------4---3----------4---|-3---------4---3---------|
|--2--------------4---3----------4---|-3---------4---3-------3-|
|--2--------------2---1----------2---|-1---------2---1-------3-|
|--0---------------------------------|-----------------------1-|


         ~
  Q  E E Q  E E   Q  E E Q  E E   Q  E E Q  E E   Q  E E Q  E  E
|---------------|---------------|---------------|------7-6----13-|
|---------------|---------------|-------------6-|-5--------------|
|---------------|------4-3------|------4-3------|----------------|
|-2-----------3-|-2-----------3-|-2-------------|----------------|
|------2-1------|---------------|---------------|----------------|
|---------------|---------------|---------------|----------------|
|
| Q  E E Q  E E   Q  E E Q  E E   Q  E E Q  E E   Q  E E Q  E  E
|---------------|---------------|---------------|----------------|
|---------------|---------------|---------------|----------------|
|---------------|---------------|---------------|----------------|
|---------------|---------------|---------------|----------------|
|------2-1----2-|-1----2-1------|------2-1----2-|-1----2-1-------|
|-0-------------|-------------1-|-0-------------|--------------1-|


               D.S. al Coda
  E5
   W               +W
|-12tr13--------|-(12tr13)-----||
|---------------|--------------||
|---------------|--------------||
|---------------|--------------||
|---------------|--------------||
|---------------|--------------||
|
|  W               +W
|---------------|--------------||
|---------------|--------------||
|---------------|--------------||
|--2------------|--(2)---------||
|--2------------|--(2)---------||
|--0------------|--(0)---------||


                  Outro
  Q=155
  &
  A5   D5G#5  D5   E5   B5Bb5  B5  Bb5  B5Bb5  F5  E5   B5Bb5  B5
  Gtrs II, III
  Q  E E Q  E E    Q  E E Q  E E   Q  E E Q  E E   Q  E E Q  E E
|---------------||---------------|---------------|---------------|
|---------------||---------------|---------------|---------------|
|------7------7-||------4-3----4-|-3----4-3------|------4-3----4-|
|-7--x-7-6--x-7-||-2----4-3----4-|-3----4-3----3-|-2----4-3----4-|
|-7--x-5-6--x-5-||-2----2-1----2-|-1----2-1----3-|-2----2-1----2-|
|-5--x---4--x---||-0-------------|-------------1-|-0-------------|


  Bb5  B5Bb5  F5  E5   B5Bb5  B5  Bb5  B5Bb5  F5  E5   B5Bb5  B5
  Q  E E Q  E E   Q  E E Q  E E   Q  E E Q  E E   Q  E E Q  E E
|---------------|---------------|---------------|---------------|
|---------------|---------------|---------------|---------------|
|-3----4-3------|------4-3----4-|-3----4-3------|------4-3----4-|
|-3----4-3----3-|-2----4-3----4-|-3----4-3----3-|-2----4-3----4-|
|-1----2-1----3-|-2----2-1----2-|-1----2-1----3-|-2----2-1----2-|
|-------------1-|-0-------------|-------------1-|-0-------------|


                Faster Q=185
  Bb5  B5Bb5  F5   E5         E5
  Q  E E Q  E E    W          Q  H.        Q  H.
|---------------||----------|------------|----------|
|---------------||----------|------------|----------|
|-3----4-3------||----------|-9--9-------|-9--9-----|
|-3----4-3----3-||-2--------|-9--9-------|-9--9-----|
|-1----2-1----3-||-2--------|-7--7-------|-7--7-----|
|-------------1-||-0--------|------------|----------|


  E5
  Q  Q  H      H     H
|------------|------------*|
|------------|------------*|
|-9--9--9----|-9\---------*|
|-9--9--9----|-9\---------*|
|-7--7--7----|-7\---------*|
|------------|------------*|



Duration Legend
---------------
W - whole; H - half; Q - quarter; E - 8th; S - 16th; T - 32nd; X - 64th; a - acciaccatura
+ - note tied to previous; . - note dotted; .. - note double dotted
Uncapitalized letters represent notes that are staccato (1/2 duration)
Irregular groupings are notated above the duration line
Duration letters will always appear directly above the note/fret number it represents the
duration for.  Duration letters with no fret number below them represent rests.  Multi-
bar rests are notated in the form Wxn, where n is the number of bars to rest for.  Low
melody durations appear below the staff

Tablature Legend
----------------
 h   - hammer-on
 p   - pull-off
 b   - bend
 pb  - pre-bend
 r   - bend release (if no number after the r, then release immediately)
 /\  - slide into or out of (from/to "nowhere")
 s   - legato slide
 S   - shift slide
 - natural harmonic
[n]  - artificial harmonic
n(n) - tapped harmonic
 ~   - vibrato
 tr  - trill
 T   - tap
 TP  - trem. picking
 PM  - palm muting
\n/  - tremolo bar dip; n = amount to dip
 \n  - tremolo bar down
 n/  - tremolo bar up
/n\  - tremolo bar inverted dip
 =   - hold bend; also acts as connecting device for hammers/pulls
 <> - volume swell (louder/softer)
 x   - on rhythm slash represents muted slash
 o   - on rhythm slash represents single note slash

Misc Legend
-----------
 |  - bar
||  - double bar
||o - repeat start
o|| - repeat end
*|  - double bar (ending)
 :  - bar (freetime)
 $  - Segno
 &  - Coda
Tempo markers -  = BPM(8/16=s8/s16), where s8 = swing 8ths, s16 = swing 16ths

Добавлено: 07.07.2013
Другие материалы по этой песне:
  • Аккорды и текст

Страница создана 15.05.2012
http://primanota.ru/anthrax/among-the-living-chords.htm
Привет, Гость.
Предлагаем пройти революционный курс по гитаре.
Подарок от PrimaNota.Ru, забирай!