PrimaNota.ru - самый крупный в мире бесплатный архив песенных текстов, аккордов, табулатур и нот


Anthrax - Armed And Dangerous - текст песни, таба, бас-таба, видео

Регистрация Запомнить меня
Войти через:  Facebook Google Twitter Vk Yandex Mail.ru

Anthrax - Armed And Dangerous - текст песни, таба, бас-таба, видео

Печатать
Просмотров: 163
As recorded by Anthrax
(From the 1985 Album ARMED AND DANGEROUS)

Transcribed by B. Johnson
	

Words and Music by Anthrax
Arranged by Anthrax

Gtr I (Eb Ab Db Gb Bb Eb) - 'Steel Acoustic'
Gtr II (Eb Ab Db Gb Bb Eb) - 'Nylon Acoustic'
Gtr III (Eb Ab Db Gb Bb Eb) - 'Distortion 1'
Gtr IV (Eb Ab Db Gb Bb Eb) - 'Distortion 2'
Gtr V (Eb Ab Db Gb Bb Eb) - 'Overdriven'

   Intro
    Slow Rock Q=130
    N.C.
   4/4
    Gtrs I, II
    E E E E E E E E   E E E E E E E E   E E E E E E E E   E E E E E E E E
||------0-------0---|-----5-------5---|-----0-------0---|-----5-------8-----||
||o---6---6---6---6-|---6---6---6---6-|---6---6---6---6-|---6---6---6---6--o||
||--7-------7-------|-5-------5-------|-----------------|-5-------5---------||
||------------------|-----------------|-7-------7-------|-------------------||
||o-----------------|-----------------|-----------------|------------------o||
||------------------|-----------------|-----------------|-------------------||


  N.C.
  E E E E E E E E   E E E E E E E E   E E E E E E E E   E E E E E E E E
|-----1-------1---|-----3-------3---|-----1-------1---|-----3-----------|
|---3---3---3---3-|---5---5---5---5-|---3---3---3---3-|---5---5-6-5-3---|
|-3-------3-------|-5-------5-------|-3-------3-------|-5-------------5-|
|-----------------|-----------------|-----------------|-----------------|
|-----------------|-----------------|-----------------|-----------------|
|-----------------|-----------------|-----------------|-----------------|


  N.C.
                                                                |-3-|
  E E E E E E E E   E E E E E E E E   E E E E E E E E   E E E E Q Q Q
|-----1-------1---|-----3-------3---|-----1-------1---|-----3----------|
|---3---3---3---3-|---5---5---5---5-|---3---3---3---3-|---5---5-6-5-3--|
|-3-------3-------|-5-------5-------|-3-------3-------|-5--------------|
|-----------------|-----------------|-----------------|----------------|
|-----------------|-----------------|-----------------|----------------|
|-----------------|-----------------|-----------------|----------------|


  D5
  W          +W
|----------|-------------||
|-3--------|-(3)---------||
|----------|-------------||
|----------|-------------||
|----------|-------------||
|----------|-------------||
|
| Gtr III
| <
| W          +H.      Q
|----------|-------------||
|----------|-------------||
|-2--------|-(2)---------||
|-0--------|-(0)---------||
|----------|-------------||
|----------|-------------||


  N.C.
  E E E E E E E E   E E E E E E E E   E E E E E E E E   E E E E E E E E
|-----0-------0---|-----5-------8---|-----0-------0---|-----5-------8---|
|---6---6---6---6-|---6---6---6---6-|---6---6---6---6-|---6---6---6---6-|
|-----------------|-5-------5-------|-----------------|-5-------5-------|
|-7-------7-------|-----------------|-7-------7-------|-----------------|
|-----------------|-----------------|-----------------|-----------------|
|-----------------|-----------------|-----------------|-----------------|


  N.C.
  E E E E E E E E   E E E E E E E E   E E E E E E E E   E E E E E E E E
|-----0-------0---|-----5-------8---|-----0-------0---|-----5-------8---|
|---6---6---6---6-|---6---6---6---6-|---6---6---6---6-|---6---6---6---6-|
|-----------------|-5-------5-------|-----------------|-5-------5-------|
|-7-------7-------|-----------------|-7-------7-------|-----------------|
|-----------------|-----------------|-----------------|-----------------|
|-----------------|-----------------|-----------------|-----------------|


  N.C.
  E E E E E E E E   E E E E E E E E   E E E E E E E E   E E E E E E E E
|-----1-------1---|-----3-------3---|-----1-------1---|-----3-----------|
|---3---3---3---3-|---5---5---5---5-|---3---3---3---3-|---5---5-6-5-3---|
|-3-------3-------|-5-------5-------|-3-------3-------|-5-------------5-|
|-----------------|-----------------|-----------------|-----------------|
|-----------------|-----------------|-----------------|-----------------|
|-----------------|-----------------|-----------------|-----------------|


  N.C.
  E E E E E E E E   E E E E E E E E   E E E E E E E E   E E E E E E E E
|-----1-------1---|-----3-------3---|-----1-------1---|-----3-----------|
|---3---3---3---3-|---5---5---5---5-|---3---3---3---3-|---5---5-6-5-3---|
|-3-------3-------|-5-------5-------|-3-------3-------|-5-------------5-|
|-----------------|-----------------|-----------------|-----------------|
|-----------------|-----------------|-----------------|-----------------|
|-----------------|-----------------|-----------------|-----------------|


  D5/A
   W          +W
|-----------|--------||
|-^3--------|-(3)----||
|-^2--------|-(2)----||
|-----------|--------||
|-----------|--------||
|-----------|--------||


  D5                              Bb5
  Gtrs III, IV
       PM       PM------------|        PM     PM------|       PM|
  Q.   E H      E E E E E E E E   Q.   E Q.   E   E E E E E E E E
|-------------|-----------------|---------------|-----------------|
|-------------|-----------------|---------------|-----------------|
|-------------|-----------------|---------------|-----------------|
|-7------7----|---3-3-3---------|-3------3------|-------3-2-0-----|
|-5----0-5----|-5-------5-3-5-3-|-1----0-1----0-|-0-1-3-------3-0-|
|-------------|-----------------|---------------|-----------------|


  D5                              Bb5
       PM       PM------------|        PM     PM--------|       PM|
  Q.   E H      E E E E E E E E   Q.   E Q.   E   E   E E E E E E  E
|-------------|-----------------|---------------|---------------------|
|-------------|-----------------|---------------|---------------------|
|-------------|-----------------|---------------|---------------------|
|-7------7----|---3-3-3---------|-3------3------|---------3-2-0-------|
|-5----0-5----|-5-------5-3-5-3-|-1----0-1----0-|-0---1-3-------3--0--|
|-------------|-----------------|---------------|---------------------|
|
|                                                 Gtr V
|                                                 \2_______________|
| W             W                 W               H..             +E
|-------------|-----------------|---------------|---------------------|
|-------------|-----------------|---------------|---------------------|
|-------------|-----------------|---------------|---------------------|
|-------------|-----------------|---------------|---------------------|
|-------------|-----------------|---------------|-0---------------(0)-|
|-------------|-----------------|---------------|---------------------|


  D5
            PM           PM-----------------------|
  Q.        E  H         E  E   E  E   E  E  E     E
|--------------------|----------------------------------|
|--------------------|----------------------------------|
|--------------------|----------------------------------|
|-7------------7-----|------3---3--3--------------------|
|-5---------0--5-----|---5-------------5--3--5-----3----|
|--------------------|----------------------------------|
|
|        ~~~~~~~~~       TP     TP     TP
| S  E. +Q    +H         Q      Q      Q     S  S  S  S
|--------------------|----------------------------------|
|-6------------------|----------------------13-12-------|
|----7--(7)---(7)----|-/12\---/12\---/14\---------14-12-|
|--------------------|----------------------------------|
|--------------------|----------------------------------|
|--------------------|----------------------------------|


  Bb5
             PM               PM----------|           PM|
   Q.        E  Q.            E      E  E E E   E  E  E   E
|----------------------------------|--------------------------|
|----------------------------------|--------------------------|
|----------------------------------|--------------------------|
|--3------------3------------------|--------3---2--0----------|
|--1---------0--1-------------0----|-0--1-3-----------3---0---|
|----------------------------------|--------------------------|
|
|                       ~~~~~~~~~~~
|  Q    +E   E  E      +Q    +E      E  E Q     E  E  E   E
|-----------10---------------------|--------------------------|
|-13---(13)----13b15==(13)--(13)r\-|--------------------------|
|----------------------------------|--------------------/12---|
|----------------------------------|--------------------------|
|----------------------------------|------8---/12-12-10-------|
|----------------------------------|-8-10---------------------|


  D5
                PM             PM-------------------------|
   Q.           E     H        E  E   E  E  E     E  E     E
|--------------------------|------------------------------------|
|--------------------------|------------------------------------|
|--------------------------|------------------------------------|
|--7------------------7----|------3---3--3----------------------|
|--5------------0-----5----|---5------------5-----3--5-----3----|
|--------------------------|------------------------------------|
|
|  Q    +S   S  S  S  H        Q      Q     S  S  E  S  S  S  S
|--------------------------|------------------------------------|
|--------------10----------|---------------10-------12-10-------|
|-10---(10)-10----10-------|-/10\---/12\------12-10-------12-10-|
|--------------------12----|------------------------------------|
|--------------------------|------------------------------------|
|--------------------------|------------------------------------|


  Bb5
               PM        PM----------|            PM---|
   Q.          E  Q.     E    E    E E E  E    E  E    E
|--------------------------|------------------------------||
|--------------------------|------------------------------||
|--------------------------|------------------------------||
|--3--------------3--------|-----------3--2----0----------||
|--1-----------0--1------0-|--0----1-3------------3----0--||
|--------------------------|------------------------------||
|
|                 ~~~~~
|  Q      +E   E  H           H           Q       Q
|-------------13-----------|-15b17-------15b17---15b17----||
|-13b15r=(13)----13b15-----|------------------------------||
|--------------------------|------------------------------||
|--------------------------|------------------------------||
|--------------------------|------------------------------||
|--------------------------|------------------------------||


  G5        BbA5G5  A5         C5 BbA5  G5       BbA5G5  A5       C5 BbA5
            |-3-|               |-3-|            |-3-|             |-3-|
   Q.   S S Q Q Q     Q.   S S  Q Q Q   Q.   S S Q Q Q   Q.   S S  Q Q Q
|-----------------|-------------------|----------------|-----------------|
|-----------------|-------------------|----------------|-----------------|
|-----------------|-------------------|----------------|-----------------|
|-----------------|-------------------|----------------|-----------------|
|--5----5-5-8-7-5-|---7----7-7-10-8-7-|-5----5-5-8-7-5-|-7----7-7-10-8-7-|
|--3----3-3-6-5-3-|---5----5-5--8-6-5-|-3----3-3-6-5-3-|-5----5-5--8-6-5-|
|
|  ~~~~~~~~~~~~~~~~~~~~~~
|  W                 +W                 W                W
|-15--------------|-(15)--------------|----------------|-----------------|
|-----------------|-------------------|----------------|-----------------|
|-----------------|-------------------|----------------|-----------------|
|-----------------|-------------------|----------------|-----------------|
|-----------------|-------------------|----------------|-----------------|
|-----------------|-------------------|----------------|-----------------|


  G5       BbA5G5  A5       C5 BbA5  G5       BbA5G5  A5
           |-3-|             |-3-|            |-3-|
  Q.   S S Q Q Q   Q.   S S  Q Q Q   Q.   S S Q Q Q   W
|----------------|-----------------|----------------|------||
|----------------|-----------------|----------------|------||
|----------------|-----------------|----------------|------||
|----------------|-----------------|----------------|------||
|-5----5-5-8-7-5-|-7----7-7-10-8-7-|-5----5-5-8-7-5-|-7----||
|-3----3-3-6-5-3-|-5----5-5--8-6-5-|-3----3-3-6-5-3-|-5----||


  Faster Q=195H=H
              G5         C5    F5 E5D#5
 3/4         4/4
                         |-3-|  |-3-|
  +H.         W          Q Q Q  Q Q Q
|----------||----------|--------------||
|----------||----------|--------------||
|----------||----------|--------------||
|----------||----------|-5-5-5-10-9-8-||
|-(7)------||-5--------|-3-3-3--8-7-6-||
|-(5)------||-3--------|--------------||


   Pre-Verse
    Faster Q=200(8=s8)
    D5          F5                                       C5    F5 E5D#5
                                     PM----|   PM----|
             |-3-|                 |3| |-3-| |3| |-3-|   |-3-|  |-3-|
    H.      +Q   E    +W           Q E E E E Q E E E E   Q Q Q  Q Q Q   4x
||-----------------|-------------|---------------------|----------------||
||o----------------|-------------|---------------------|---------------o||
||-----------------|-------------|---------------------|----------------||
||--7-------(7)-10-|-(10)--------|-3---------3---------|-5-5-5-10-9-8---||
||o-5-------(5)--8-|--(8)--------|---5-5-5-5---5-5-5-5-|-3-3-3--8-7-6--o||
||-----------------|-------------|---------------------|----------------||


   1st, 2nd, 3rd Verses
    $
    A5 Bb5   A5         A5 Bb5   C5 BbA5     Bb5   A5         A5 Bb5   C5 BbA5
       PM--|               PM--|             PM--|               PM--|
       |-3-|    |-3-|      |-3-|  |-3-|      |-3-|    |-3-|      |-3-|  |-3-|
    Q  E E E Q  E E E   Q  E E E  Q Q Q   Q  E E E Q  E E E   Q  E E E  Q Q Q
||--------------------|-----------------|-------------------|------------------|
||o-------------------|-----------------|-------------------|------------------|
||--------------------|-----------------|-------------------|------------------|
||--------------------|-----------------|-------------------|------------------|
||o-7--8-8-8-7--8p7p5-|-7--8-8-8-10-8-7-|-7--8-8-8-7--8p7p5-|-7--8-8-8-10-8-7--|
||--5--6-6-6-5--------|-5--6-6-6--8-6-5-|-5--6-6-6-5--------|-5--6-6-6--8-6-5--|


  A5 Bb5   A5         A5 Bb5   C5 BbA5     Bb5   A5         A5 Bb5   C5 BbA5
     PM--|               PM--|             PM--|               PM--|
     |-3-|    |-3-|      |-3-|  |-3-|      |-3-|    |-3-|      |-3-|  |-3-|
  Q  E E E Q  E E E   Q  E E E  Q Q Q   Q  E E E Q  E E E   Q  E E E  Q Q Q
|-------------------|-----------------|-------------------|-----------------|
|-------------------|-----------------|-------------------|-----------------|
|-------------------|-----------------|-------------------|-----------------|
|-------------------|-----------------|-------------------|-----------------|
|-7--8-8-8-7--8p7p5-|-7--8-8-8-10-8-7-|-7--8-8-8-7--8p7p5-|-7--8-8-8-10-8-7-|
|-5--6-6-6-5--------|-5--6-6-6--8-6-5-|-5--6-6-6-5--------|-5--6-6-6--8-6-5-|


  A5 Bb5   A5         A5 Bb5   C5   A5     Bb5   A5         A5 Bb5   C5 BbA5
     PM--|               PM--|             PM--|               PM--|
     |-3-|    |-3-|      |-3-|  |-3-|      |-3-|    |-3-|      |-3-|  |-3-|
  Q  E E E Q  E E E   Q  E E E  Q Q Q   Q  E E E Q  E E E   Q  E E E  Q Q Q
|-------------------|-----------------|-------------------|-----------------|
|-------------------|-----------------|-------------------|-----------------|
|-------------------|-----------------|-------------------|-----------------|
|-------------------|-----------------|-------------------|-----------------|
|-7--8-8-8-7--8p7p5-|-7--8-8-8-10-8-7-|-7--8-8-8-7--8p7p5-|-7--8-8-8-10-8-7-|
|-5--6-6-6-5--------|-5--6-6-6--8-6-5-|-5--6-6-6-5--------|-5--6-6-6--8-6-5-|


  A5 Bb5   A5         A5 Bb5   C5 BbA5     Bb5   A5         A5 Bb5   C5 BbA5
     PM--|               PM--|             PM--|               PM--|
     |-3-|    |-3-|      |-3-|  |-3-|      |-3-|    |-3-|      |-3-|  |-3-|
  Q  E E E Q  E E E   Q  E E E  Q Q Q   Q  E E E Q  E E E   Q  E E E  Q Q Q
|-------------------|-----------------|-------------------|-----------------||
|-------------------|-----------------|-------------------|-----------------||
|-------------------|-----------------|-------------------|-----------------||
|-------------------|-----------------|-------------------|-----------------||
|-7--8-8-8-7--8p7p5-|-7--8-8-8-10-8-7-|-7--8-8-8-7--8p7p5-|-7--8-8-8-10-8-7-||
|-5--6-6-6-5--------|-5--6-6-6--8-6-5-|-5--6-6-6-5--------|-5--6-6-6--8-6-5-||


  A5 Bb5   C5  Bb5     C5  Bb5   A5 D5   A5 Bb5   C5  Bb5     C5  Bb5   A5 D5
     PM--|     PM--|       PM--|            PM--|     PM--|       PM--|
     |-3-|     |-3-|       |-3-|            |-3-|     |-3-|       |-3-|
  Q  E E E  Q  E E E    Q  E E E Q  Q    Q  E E E  Q  E E E    Q  E E E Q  Q
|--------------------|-----------------|--------------------|-----------------|
|--------------------|-----------------|--------------------|-----------------|
|--------------------|-----------------|--------------------|-----------------|
|--------------------|--------------7--|--------------------|--------------7--|
|-7--8-8-8-10--8-8-8-|-10--8-8-8-7--5--|-7--8-8-8-10--8-8-8-|-10--8-8-8-7--5--|
|-5--6-6-6--8--6-6-6-|--8--6-6-6-5-----|-5--6-6-6--8--6-6-6-|--8--6-6-6-5-----|


  A5 Bb5   C5  Bb5     C5  Bb5   A5 D5
     PM--|     PM--|       PM--|
     |-3-|     |-3-|       |-3-|
  Q  E E E  Q  E E E    Q  E E E Q  Q
|--------------------|-----------------|
|--------------------|-----------------|
|--------------------|-----------------|
|--------------------|--------------7--|
|-7--8-8-8-10--8-8-8-|-10--8-8-8-7--5--|
|-5--6-6-6--8--6-6-6-|--8--6-6-6-5-----|


  A5 Bb5   C5  Bb5     C5  Bb5   A5 F5
     PM--|     PM--|       PM--|
     |-3-|     |-3-|       |-3-|
  Q  E E E  Q  E E E    Q  E E E Q   Q
|--------------------|------------------||
|--------------------|------------------||
|--------------------|------------------||
|--------------------|--------------10--||
|-7--8-8-8-10--8-8-8-|-10--8-8-8-7---8--||
|-5--6-6-6--8--6-6-6-|--8--6-6-6-5------||


 Chorus
  D5          F5                                       C5    F5 E5D#5
                                   PM----|   PM----|
           |-3-|                 |3| |-3-| |3| |-3-|   |-3-|  |-3-|
  H.      +Q   E    +W           Q E E E E Q E E E E   Q Q Q  Q Q Q
|----------------|-------------|---------------------|--------------|
|----------------|-------------|---------------------|--------------|
|----------------|-------------|---------------------|--------------|
|-7-------(7)-10-|-(10)--------|-3---------3---------|-5-5-5-10-9-8-|
|-5-------(5)--8-|--(8)--------|---5-5-5-5---5-5-5-5-|-3-3-3--8-7-6-|
|----------------|-------------|---------------------|--------------|


                        To Coda
  D5          F5
                                   PM----|   PM----|
           |-3-|                 |3| |-3-| |3| |-3-|
  H.      +Q   E    +W           Q E E E E Q E E E E
|----------------|-------------|---------------------|
|----------------|-------------|---------------------|
|----------------|-------------|---------------------|
|-7-------(7)-10-|-(10)--------|-3---------3---------|
|-5-------(5)--8-|--(8)--------|---5-5-5-5---5-5-5-5-|
|----------------|-------------|---------------------|
|
| Gtr V
| W                  W           W
|----------------|-------------|---------------------|
|----------------|-------------|---------------------|
|----------------|-------------|---------------------|
|----------------|-------------|---------------------|
|----------------|-------------|---------------------|
|----------------|-------------|---------------------|


 1.                  2.
  C5    F5 E5D#5     C5    F5 E5  D#5
  |-3-|  |-3-|       |-3-|  |--3--|
  Q Q Q  Q Q Q       Q Q Q  Q Q   Q
|-----------------||-------------------||
|----------------o||-------------------||
|-----------------||-------------------||
|-5-5-5-10-9-8----||-5-5-5-10-9---8----||
|-3-3-3--8-7-6---o||-3-3-3--8-7---6----||
|-----------------||-------------------||
|
|                                 Gtr V
|                               |-3-|
| W                  H      Q   E E E
|-----------------||------------6p5p3--||
|----------------o||-------------------||
|-----------------||-------------------||
|-----------------||-------------------||
|----------------o||-------------------||
|-----------------||-------------------||


   Bridge
    A5 Bb5   A5         A5 Bb5   A5
       |-3-|    |-3-|      |-3-|    |-3-|
    Q  E E E Q  E E E   Q  E E E Q  E E E
||--------------------|-------------------|
||o-------------------|-------------------|
||--------------------|-------------------|
||--------------8p7p5-|-------------8p7p5-|
||o-7--8-8-8-7--------|-7--8-8-8-7--------|
||--5--6-6-6-5--------|-5--6-6-6-5--------|
|
|               |-3-|               |-3-|
|   Q  Q     Q  E E E   Q  Q     Q  E E E
||--5-----------6p5p3-|-5-----------6p5p3-|
||o-------------------|-------------------|
||--------------------|-------------------|
||--------------------|-------------------|
||o-------------------|-------------------|
||--------------------|-------------------|


               1.,2.,3.             4.
  |-3-| |-3-|             |-3-|
  Q Q Q Q Q Q   Q.   E Q  E E E  4x Q.   E H
|-------------|------------------||-------------|
|-------------|-----------------o||-------------|
|-------------|------------------||-------------|
|-7-5---5-----|-----------8p7p5--||-------------|
|-----8---8-7-|-8----7-5--------o||-8----7-5----|
|-------------|------------------||-------------|
|
| |-3-| |-3-|             |-3-|
| Q Q Q Q Q Q   Q.   E Q  E E E  4x Q.   E H
|-5-3---3-----|-----------6p5p3--||-------------|
|-----6---6-5-|-6----5-3--------o||-6----5-3----|
|-------------|------------------||-------------|
|-------------|------------------||-------------|
|-------------|-----------------o||-------------|
|-------------|------------------||-------------|


 Guitar Solo
  E5                        E5
  Gtrs III, IV
        PM--------------|         PM---------------|
        |-3-| |-3-| |-3-|         |-3-| |-3-|  |-3-|
  Q     E E E E E E E E E   Q     E E E E E E  E E E
|-------------------------|--------------------------|
|-------------------------|--------------------------|
|-------------------------|--------------------------|
|-9-----------------------|-9------------------------|
|-7-----7-7-7-7-7-7-7-7-7-|-7-----7-7-7-7-7-7--7-7-7-|
|-------------------------|--------------------------|
|
| Gtr V
| |-3-| |-3-| |-3-| |-3-|   |-3-| |-3-| |-3-|  |-3-|
| E E E E E E E E E E E E   E E E E E E E E E  E E E
|-------------------------|--------------------------|
|-------------------------|--------------------------|
|-4p2p1-6p4p2-6p4p2-7p6p4-|-7p6p4-9p7p6-9p7p6-11p9p7-|
|-------------------------|--------------------------|
|-------------------------|--------------------------|
|-------------------------|--------------------------|


  E5                                E5                G5 F#5F5
          PM-------------------|              PM---|
          |-3--|  |-3--|  |--3--|             |--3--|  |--3--|
   Q      E  E E  E  E E  E  E  E    Q        E  E  E  Q  Q  Q
|---------------------------------|----------------------------|
|---------------------------------|----------------------------|
|---------------------------------|----------------------------|
|--9------------------------------|--9----------------12-11-10-|
|--7------7--7-7--7--7-7--7--7--7-|--7--------7--7--7-10--9--8-|
|---------------------------------|----------------------------|
|
|  |-3-|  |-3--|  |-3--|  |--3--|    |--3--|  |--3--|  |--3--|
|  E E E  E  E E  E  E E  E  E  E    E  E  E  E  E  E  Q  Q  Q
|---------------------------------|----------------------------|
|---------------------------------|-------------------15-14-12-|
|-11p9p7-12p11p9-12p11p9-14p12p11-|-14p12p11-16p14p12----------|
|---------------------------------|----------------------------|
|---------------------------------|----------------------------|
|---------------------------------|----------------------------|


  E5                                        E5
            PM-------------------------|               PM---------------|
            |----3----|   |-3--|  |--3--|              |-3--| |-3-| |-3-|
   Q        E  E      E   E  E E  E  E  E    Q         E  E E E E E E E E
|-----------------------------------------|-------------------------------|
|-----------------------------------------|-------------------------------|
|-----------------------------------------|-------------------------------|
|--9--------------------------------------|--9----------------------------|
|--7--------7--7------7---7--7-7--7--7--7-|--7---------7--7-7-7-7-7-7-7-7-|
|-----------------------------------------|-------------------------------|
|
|                  ~~~~~~~~~~                      ~~~~~~~
|                                 |--3--|    |--3--|                |-3-|
|  Q       +E     +E     +Q       E  E  E    E  E  E  +H            Q   E
|-15b17===(15)r==(15)---(15)--------------|-------------------------------|
|--------------------------------13p12----|-------------------------------|
|--------------------------------------12-|----12-------------------0s==9-|
|-----------------------------------------|-14----14-(14)-----------------|
|-----------------------------------------|-------------------------------|
|-----------------------------------------|-------------------------------|


  E5                        E5          G5 F#5F5
        PM--------------|         PM--|
        |-3-| |-3-| |-3-|         |-3-|  |--3--|
  Q     E E E E E E E E E   Q     E E E  Q  Q  Q
|-------------------------|------------------------|
|-------------------------|------------------------|
|-------------------------|------------------------|
|-9-----------------------|-9-----------12-11-10---|
|-7-----7-7-7-7-7-7-7-7-7-|-7-----7-7-7-10--9--8---|
|-------------------------|------------------------|
|
|                                        ~~
| |-3-| |-3-| |-3-| |-3-|   |-3-| |-3-|
| E E E E E E E E E E E E   E E E E E E  H
|-------------------------|------------------------|
|-8-----------------------|------------------------|
|---9-6-9-6---6-----------|------------------------|
|-----------8---8-5-8-5---|-5----------------------|
|-----------------------7-|---7-4-7-4--------------|
|-------------------------|-----------6--3---------|


  E5                        E5
        PM--------------|             PM---------------------|
        |-3-| |-3-| |-3-|             |--3--|  |--3--|  |--3--|
  Q     E E E E E E E E E    Q        E  E  E  E  E  E  E  E  E
|-------------------------|-------------------------------------|
|-------------------------|-------------------------------------|
|-------------------------|-------------------------------------|
|-9-----------------------|--9----------------------------------|
|-7-----7-7-7-7-7-7-7-7-7-|--7--------7--7--7--7--7--7--7--7--7-|
|-------------------------|-------------------------------------|
|
| |-3-| |-3-| |-3-| |-3-|    |--3--|  |--3--|  |--3--|  |--3--|
| E E E E E E E E E E E E    E  E  E  E  E  E  E  E  E  E  E  E
|-------------------------|-------------------------------------|
|-------------------------|-------------------------------------|
|-------------------------|-------------------------------------|
|-------------------------|-------------------11----------11-14-|
|-------------4-4-4-7-6-4-|-10-10-10-13-10-13----13-13-13-------|
|-3-3-3-6-6-6-------------|-------------------------------------|


  E5                                 E5                G5 F#5F5
         PM---------------------|              PM---|
         |--3--|  |--3--|  |--3--|             |--3--|  |--3--|
   Q     E  E  E  E  E  E  E  E  E    Q        E  E  E  Q  Q  Q
|----------------------------------|-------------------------------|
|----------------------------------|-------------------------------|
|----------------------------------|-------------------------------|
|--9-------------------------------|--9----------------12-11-10----|
|--7-----7--7--7--7--7--7--7--7--7-|--7--------7--7--7-10--9--8----|
|----------------------------------|-------------------------------|
|
|                                                       ~~
|  |3-|  |--3--|  |--3--|  |--3--|    |--3--|  |--3--|
|  Q  E  E  E  E  E  E  E  E  E  E    E  E  E  E  E  E  H
|----------------------------------|----------18----21-21----------|
|----------------15----14-17-14-17-|-20-17-20----20----------------|
|-12-12-15-15-12----15-------------|-------------------------------|
|----------------------------------|-------------------------------|
|----------------------------------|-------------------------------|
|----------------------------------|-------------------------------|


  E5                      E5
      PM--------------|         PM------------------|
      |-3-| |-3-| |-3-|         |-3--|  |-3--| |-3--|
  Q   E E E E E E E E E    Q    E E  E  E  E E E  E E
|-----------------------|-----------------------------|
|-----------------------|-----------------------------|
|-----------------------|-----------------------------|
|-9---------------------|--9--------------------------|
|-7---7-7-7-7-7-7-7-7-7-|--7----7-7--7--7--7-7-7--7-7-|
|-----------------------|-----------------------------|
|
| |3| |-3-| |-3-| |-3-|    |3-| |-3--|  |3-|   |-3--|
| Q E E E E E E E E E E   +Q  E E E  E  E  Q   E  E E
|-----------------------|--------------10-------------|
|-----5-5-5-8-8-5---5---|-------8-8-12----12---8-12-8-|
|---6-------------6---6-|-(6)s9-----------------------|
|-----------------------|-----------------------------|
|-----------------------|-----------------------------|
|-----------------------|-----------------------------|


  E5                                       E5           G5     F#5G5
        PM-----------------------------|          PM--|
        |-3-|  |----3----|     |---3---|          |-3-|  |----3----|
  Q     E E E  E    E    E     E     E E     Q    E E E  Q      Q  Q
|----------------------------------------|------------------------------||
|----------------------------------------|------------------------------||
|----------------------------------------|------------------------------||
|-9--------------------------------------|---9----------12-----11-12----||
|-7-----7-7-7--7----7----7-----7-----7-7-|---7----7-7-7-10------9-10----||
|----------------------------------------|------------------------------||
|
| |3-|
| Q  E  Q      S  S    S    S  Q            +H           H
|------10-----14-12---10-----------------|------------------------------||
|-8-12---------------------12-15b17======|=(15)r--------15b17===========||
|----------------------------------------|------------------------------||
|----------------------------------------|------------------------------||
|----------------------------------------|------------------------------||
|----------------------------------------|------------------------------||


 Chorus 2
  D5              F5                                        C5    F5 E5D#5
                                        PM----|   PM----|
               |-3-|                  |3| |-3-| |3| |-3-|   |-3-|  |-3-|
    H.        +Q   E    +W            Q E E E E Q E E E E   Q Q Q  Q Q Q
|--------------------|--------------|---------------------|-----------------|
|--------------------|--------------|---------------------|-----------------|
|--------------------|--------------|---------------------|-----------------|
|---7---------(7)-10-|-(10)---------|-3---------3---------|-5-5-5-10-9-8----|
|---5---------(5)--8-|--(8)---------|---5-5-5-5---5-5-5-5-|-3-3-3--8-7-6----|
|--------------------|--------------|---------------------|-----------------|
|
|   ~~~~~~~~~~~~~~~~~~~~~~~~~
|  +W                   +W            W                     W
|--------------------|--------------|---------------------|-----------------|
|-(15)r\-------------|-(15)\--------|---------------------|-----------------|
|--------------------|--------------|---------------------|-----------------|
|--------------------|--------------|---------------------|-----------------|
|--------------------|--------------|---------------------|-----------------|
|--------------------|--------------|---------------------|-----------------|


  D5          F5                                       C5    F5 E5D#5
                                   PM----|   PM----|
           |-3-|                 |3| |-3-| |3| |-3-|   |-3-|  |-3-|
  H.      +Q   E    +W           Q E E E E Q E E E E   Q Q Q  Q Q Q
|----------------|-------------|---------------------|--------------|
|----------------|-------------|---------------------|--------------|
|----------------|-------------|---------------------|--------------|
|-7-------(7)-10-|-(10)--------|-3---------3---------|-5-5-5-10-9-8-|
|-5-------(5)--8-|--(8)--------|---5-5-5-5---5-5-5-5-|-3-3-3--8-7-6-|
|----------------|-------------|---------------------|--------------|


  D5                   F5
                  |--3--|
  H.             +Q     E    +W
|-------------------------|-------------|
|-------------------------|-------------|
|-------------------------|-------------|
|-7--------------(7)---10-|-(10)--------|
|-5--------------(5)----8-|--(8)--------|
|-------------------------|-------------|
|
| Gtr V
| H      Q       +Q           W
|-------10------(10)\-----|-------------|
|-------13b15===(13)r\----|-------------|
|-------------------------|-------------|
|-------------------------|-------------|
|-------------------------|-------------|
|-------------------------|-------------|


                        C5    F5 E5D#5
    PM----|   PM----|
  |3| |-3-| |3| |-3-|   |-3-|  |-3-|
  Q E E E E Q E E E E   Q Q Q  Q Q Q
|---------------------|-----------------|
|---------------------|-----------------|
|---------------------|-----------------|
|-3---------3---------|-5-5-5-10-9-8----|
|---5-5-5-5---5-5-5-5-|-3-3-3--8-7-6----|
|---------------------|-----------------|
|
| W                     W
|---------------------|-----------------|
|---------------------|-----------------|
|---------------------|-----------------|
|---------------------|-----------------|
|---------------------|-----------------|
|---------------------|-----------------|


                                                      D.S. al Coda
  D5          F5                                       C5    F5 E5D#5
                                   PM----|   PM----|
           |-3-|                 |3| |-3-| |3| |-3-|   |-3-|  |-3-|
  H.      +Q   E    +W           Q E E E E Q E E E E   Q Q Q  Q Q Q
|----------------|-------------|---------------------|--------------||
|----------------|-------------|---------------------|--------------||
|----------------|-------------|---------------------|--------------||
|-7-------(7)-10-|-(10)--------|-3---------3---------|-5-5-5-10-9-8-||
|-5-------(5)--8-|--(8)--------|---5-5-5-5---5-5-5-5-|-3-3-3--8-7-6-||
|----------------|-------------|---------------------|--------------||


  &
                        C5    F5 E5D#5
    PM----|   PM----|
  |3| |-3-| |3| |-3-|   |-3-|  |-3-|
  Q E E E E Q E E E E   Q Q Q  Q Q Q
|---------------------|--------------||
|---------------------|--------------||
|---------------------|--------------||
|-3---------3---------|-5-5-5-10-9-8-||
|---5-5-5-5---5-5-5-5-|-3-3-3--8-7-6-||
|---------------------|--------------||


 Out-Chorus
  D5          F5                                       C5    F5 E5D#5
                                   PM----|   PM----|
           |-3-|                 |3| |-3-| |3| |-3-|   |-3-|  |-3-|
  H.      +Q   E    +W           Q E E E E Q E E E E   Q Q Q  Q Q Q
|----------------|-------------|---------------------|--------------|
|----------------|-------------|---------------------|--------------|
|----------------|-------------|---------------------|--------------|
|-7-------(7)-10-|-(10)--------|-3---------3---------|-5-5-5-10-9-8-|
|-5-------(5)--8-|--(8)--------|---5-5-5-5---5-5-5-5-|-3-3-3--8-7-6-|
|----------------|-------------|---------------------|--------------|


  D5                F5
              |--3---|
   H.        +Q      E    +W
|----------------------|----------------|
|----------------------|----------------|
|----------------------|----------------|
|--7---------(7)----10-|-(10)-----------|
|--5---------(5)-----8-|--(8)-----------|
|----------------------|----------------|
|
| Gtr V
|                 ~~~~~~~~~~~~~
|  H..            E       +Q    Q  H
|-15b17----------15----|-(15)\----------|
|----------------------|----------------|
|----------------------|----------------|
|----------------------|----------------|
|----------------------|----------------|
|----------------------|----------------|


                        C5    F5 E5  D#5
    PM----|   PM----|
  |3| |-3-| |3| |-3-|   |-3-|  |--3--|
  Q E E E E Q E E E E   Q Q Q  Q Q   Q
|---------------------|-------------------||
|---------------------|-------------------||
|---------------------|-------------------||
|-3---------3---------|-5-5-5-10-9---8----||
|---5-5-5-5---5-5-5-5-|-3-3-3--8-7---6----||
|---------------------|-------------------||
|
|                                  |-3-|
| W                     H      Q   E E E
|---------------------|------------6p5p3--||
|---------------------|-------------------||
|---------------------|-------------------||
|---------------------|-------------------||
|---------------------|-------------------||
|---------------------|-------------------||


   Outro
    A5 Bb5   A5         A5 Bb5   A5
       |-3-|    |-3-|      |-3-|    |-3-|
    Q  E E E Q  E E E   Q  E E E Q  E E E
||--------------------|-------------------|
||o-------------------|-------------------|
||--------------------|-------------------|
||--------------8p7p5-|-------------8p7p5-|
||o-7--8-8-8-7--------|-7--8-8-8-7--------|
||--5--6-6-6-5--------|-5--6-6-6-5--------|
|
|               |-3-|               |-3-|
|   Q  Q     Q  E E E   Q  Q     Q  E E E
||--5-----------6p5p3-|-5-----------6p5p3-|
||o-------------------|-------------------|
||--------------------|-------------------|
||--------------------|-------------------|
||o-------------------|-------------------|
||--------------------|-------------------|


               1.,2.,3.             4.=H
  |-3-| |-3-|             |-3-|     |-3-| |-3-|
  Q Q Q Q Q Q   Q.   E Q  E E E  4x Q Q Q Q Q Q
|-------------|------------------||--------------|
|-------------|-----------------o||--------------|
|-------------|------------------||--------------|
|-7-5---5-----|-----------8p7p5--||-7-5---5------|
|-----8---8-7-|-8----7-5--------o||-----8---8-7--|
|-------------|------------------||--------------|
|
| |-3-| |-3-|             |-3-|     |-3-| |-3-|
| Q Q Q Q Q Q   Q.   E Q  E E E  4x Q Q Q Q Q Q
|-5-3---3-----|-----------6p5p3--||-5-3---3------|
|-----6---6-5-|-6----5-3--------o||-----6---6-5--|
|-------------|------------------||--------------|
|-------------|------------------||--------------|
|-------------|-----------------o||--------------|
|-------------|------------------||--------------|


               Slower Q=130
                  D5
  |-3-|
  Q Q Q +H        W
|--------------||---------------------------------------||
|--------------||---------------------------------------||
|--------------||---------------------------------------||
|--------------||-7-------------------------------------||
|-8-7----------||-5-------------------------------------||
|-----8-(8)----||---------------------------------------||
|
| |-3-|
| Q Q Q +H        E  S S S S S S S  S S  S     +E  S  S
|--------------||---------------------8h10b12-(10)-8----||
|-6-5----------||----------------8h10----------------10-||
|-----5-(5)----||----------5h7s9------------------------||
|--------------||-7\-3h5s7------------------------------||
|--------------||-5\------------------------------------||
|--------------||---------------------------------------||


         Faster Q=200(8=s8)
 1/4       4/4
            |-3-| |-3-| |-3-| |-3-|
  +Q        E E E E E E E E E E E E   Q   Q  H
|--------||-------------------------|-------------*|
|--------||-------------------------|-------------*|
|--------||-------------------------|-------------*|
|-(7)----||-7-5---5-----------------|-------------*|
|-(5)----||-----8---8-7-8-7-5-7-5---|-5\----------*|
|--------||-----------------------8-|-------------*|
|
|  ~~~~~
|           |-3-| |-3-| |-3-| |-3-|
|  Q        E E E E E E E E E E E E   Q   Q  H
|-13b15--||-5-3---3-----------------|-------------*|
|--------||-----6---6-5-6-5-3-5-3---|-3\----------*|
|--------||-----------------------5-|-------------*|
|--------||-------------------------|-------------*|
|--------||-------------------------|-------------*|
|--------||-------------------------|-------------*|



Duration Legend
---------------
W - whole; H - half; Q - quarter; E - 8th; S - 16th; T - 32nd; X - 64th; a - acciaccatura
+ - note tied to previous; . - note dotted; .. - note double dotted
Uncapitalized letters represent notes that are staccato (1/2 duration)
Irregular groupings are notated above the duration line
Duration letters will always appear directly above the note/fret number it represents the
duration for.  Duration letters with no fret number below them represent rests.  Multi-
bar rests are notated in the form Wxn, where n is the number of bars to rest for.  Low
melody durations appear below the staff

Tablature Legend
----------------
 h   - hammer-on
 p   - pull-off
 b   - bend
 pb  - pre-bend
 r   - bend release (if no number after the r, then release immediately)
 /\  - slide into or out of (from/to "nowhere")
 s   - legato slide
 S   - shift slide
 - natural harmonic
[n]  - artificial harmonic
n(n) - tapped harmonic
 ~   - vibrato
 tr  - trill
 T   - tap
 TP  - trem. picking
 PM  - palm muting
\n/  - tremolo bar dip; n = amount to dip
 \n  - tremolo bar down
 n/  - tremolo bar up
/n\  - tremolo bar inverted dip
 =   - hold bend; also acts as connecting device for hammers/pulls
 <> - volume swell (louder/softer)
 x   - on rhythm slash represents muted slash
 o   - on rhythm slash represents single note slash

Misc Legend
-----------
 |  - bar
||  - double bar
||o - repeat start
o|| - repeat end
*|  - double bar (ending)
 :  - bar (freetime)
 $  - Segno
 &  - Coda
Tempo markers -  = BPM(8/16=s8/s16), where s8 = swing 8ths, s16 = swing 16ths

Добавлено: 30.08.2013
Другие материалы по этой песне:
  • Аккорды и текст

Страница создана 30.03.2012
http://primanota.ru/anthrax/armed-and-dangerous-chords.htm
Привет, Гость.
Предлагаем пройти революционный курс по гитаре.
Подарок от PrimaNota.Ru, забирай!