PrimaNota.ru - самый крупный в мире бесплатный архив песенных текстов, аккордов, табулатур и нот


Anthrax - Be All, End All - текст песни, таба, бас-таба, видео

Регистрация Запомнить меня
Войти через:  Facebook Google Twitter Vk Yandex Mail.ru

Anthrax - Be All, End All - текст песни, таба, бас-таба, видео

Печатать
Просмотров: 206
As recorded by ANTHRAX
(From the 1988 Album STATE OF EUPHORIA)

Transcribed by Russ Elton (webmaster@abysslord.com)
	

Words and Music by ANTHRAX
Arranged by Mike Brown (warlockmb2000@yahoo.com)

Gtr I (E A D G B E) - 'Dist. 1'
Gtr II (E A D G B E) - 'Dist. 2'
Gtr III (E A D G B E) - 'Cello'
Gtr IV (E A D G B E) - 'Dist. 3'

  Slowly Q=98
 4/4
  Gtr III
  E E +Q   E E E E   E E +Q   E E E E   E E +Q   E E E E    H    H
|------------------|------------------|------------------|------------|
|------------------|------------------|------------------|------------|
|------------------|------------------|------------------|------------|
|------------------|------------------|------------------|------------|
|-6-5-(5)--6-5-3-5-|-6-5-(5)--6-5-3-5-|-6-5-(5)--6-5-3-5-|-/8----7----|
|------------------|------------------|------------------|------------|


  E E +Q   E E E E   E E +Q   E E E E   E E +Q   E E E E    H    H
|------------------|------------------|------------------|------------|
|------------------|------------------|------------------|------------|
|------------------|------------------|------------------|------------|
|------------------|------------------|------------------|------------|
|-6-5-(5)--6-5-3-5-|-6-5-(5)--6-5-3-5-|-6-5-(5)--6-5-3-5-|-/8----7----|
|------------------|------------------|------------------|------------|


    Gtrs I, II
    E E +Q   E E E E   E E +Q   E E E E   E E +Q   E E E E     H    H     4x
||-------------------|------------------|------------------|--------------||
||o------------------|------------------|------------------|-------------o||
||-------------------|------------------|------------------|--------------||
||--8-7-(7)--8-7-5-7-|-8-7-(7)--8-7-5-7-|-8-7-(7)--8-7-5-7-|-/10----9-----||
||o-6-5-(5)--6-5-3-5-|-6-5-(5)--6-5-3-5-|-6-5-(5)--6-5-3-5-|--/8----7----o||
||--6-5-(5)--6-5-3-5-|-6-5-(5)--6-5-3-5-|-6-5-(5)--6-5-3-5-|--/8----7-----||


    Faster Q=234
    Gtrs I, II
    Q   Q +H       Q  Q  Q  Q    Q   Q +H       Q  Q  Q  Q
||---------------|-------------|--------------|--------------|
||o--------------|-------------|--------------|--------------|
||---------------|-------------|--------------|--------------|
||--8---7-(7)----|-8--7--5--7--|-8---7-(7)----|-8--7--5--7---|
||o-6---5-(5)----|-6--5--3--5--|-6---5-(5)----|-6--5--3--5---|
||--6---5-(5)----|-6--5--3--5--|-6---5-(5)----|-6--5--3--5---|
|
|   Gtr IV
|   Q   Q +H       Q  Q  Q  Q    Q   Q +H       Q  Q  Q  Q
||---------------|-------------|--------------|--------------|
||o--------------|-------------|--------------|--------------|
||--8---7-(7)----|-8--7--5--7--|-8---7-(7)----|-8--7--5--7---|
||---------------|-------------|--------------|--------------|
||o--------------|-------------|--------------|--------------|
||---------------|-------------|--------------|--------------|


  Q   Q +H       Q  Q  Q  Q      W          W
|--------------|-------------|------------|-------||
|--------------|-------------|------------|------o||
|--------------|-------------|------------|-------||
|-8---7-(7)----|-8--7--5--7--|-/10--------|-9-----||
|-6---5-(5)----|-6--5--3--5--|--/8--------|-7----o||
|-6---5-(5)----|-6--5--3--5--|--/8--------|-7-----||
|
| Q   Q +H       Q  Q  Q  Q      W          W
|--------------|-------------|------------|-------||
|--------------|-------------|------------|------o||
|-8---7-(7)----|-8--7--5--7--|-/10--------|-9-----||
|--------------|-------------|------------|-------||
|--------------|-------------|------------|------o||
|--------------|-------------|------------|-------||


  Gtrs I, II
  PM------------------------------|         PM--------|       PM|     PM|
  E E E E E E E E   E E E E E E E E     E E E E E E E E   E E E E E E E E
|-----------------|-----------------||------------------|-----------------|
|-----------------|-----------------||o-----------------|-----------------|
|-----------------|-----------------||------------------|-----------------|
|-----------------|-----------------||------------------|-----------------|
|-3-4-5-6-3-4-5-6-|-3-4-5-6-3-4-5-6-||o-8S7-------------|-8S7-----5S7-----|
|-0-0-0-0-0-0-0-0-|-0-0-0-0-0-0-0-0-||--6S5-5-5-5-5-5-5-|-6S5-5-5-3S5-5-5-|


      PM--------|       PM|     PM|       PM--------|
  E E E E E E E E   E E E E E E E E   E E E E E E E E   Q  Q  Q  Q
|-----------------|-----------------|-----------------|-------------|
|-----------------|-----------------|-----------------|-------------|
|-----------------|-----------------|-----------------|-------------|
|-----------------|-----------------|-----------------|-------0-----|
|-8S7-------------|-8S7-----5S7-----|-3S2-------------|-3--2--0--2--|
|-6S5-5-5-5-5-5-5-|-6S5-5-5-3S5-5-5-|-1S0-0-0-0-0-0-0-|-1--0-----0--|


      PM--------|                     PM--------|       PM|     PM|
  E E E E E E E E   Q  Q  Q  Q    E E E E E E E E   E E E E E E E E
|-----------------|-------------|-----------------|-----------------|
|-----------------|-------------|-----------------|-----------------|
|-----------------|-------------|-----------------|-----------------|
|-----------------|-------0-----|-----------------|-----------------|
|-3S2-------------|-3--2--0--2--|-8S7-------------|-8S7-----5S7-----|
|-1S0-0-0-0-0-0-0-|-1--0-----0--|-6S5-5-5-5-5-5-5-|-6S5-5-5-3S5-5-5-|


      PM--------|       PM|     PM|       PM--------|
  E E E E E E E E   E E E E E E E E   E E E E E E E E   Q  Q  Q  Q
|-----------------|-----------------|-----------------|-------------|
|-----------------|-----------------|-----------------|-------------|
|-----------------|-----------------|-----------------|-------------|
|-----------------|-----------------|-----------------|-------0-----|
|-8S7-------------|-8S7-----5S7-----|-3S2-------------|-3--2--0--2--|
|-6S5-5-5-5-5-5-5-|-6S5-5-5-3S5-5-5-|-1S0-0-0-0-0-0-0-|-1--0-----0--|


      PM--------|                   PM--|   PM        PM----------|
  E E E E E E E E   Q  Q  Q  Q    E E E E E E E E   E E E E E E E E
|-----------------|-------------|-----------------|-----------------|
|-----------------|-------------|-----------------|-----------------|
|-----------------|-------------|-----------------|-----------------|
|-----------------|-------0-----|-------------5-4-|-----------------|
|-3S2-------------|-3--2--0--2--|-5-------3---3-2-|-2---------------|
|-1S0-0-0-0-0-0-0-|-1--0-----0--|-3-0-0-0-1-0-----|-0-0-0-0-0-0-0-0-|


    PM--|   PM        PM----------|     PM--|   PM        PM----------|
  E E E E E E E E   E E E E E E E E   E E E E E E E E   E E E E E E E E
|-----------------|-----------------|-----------------|-----------------|
|-----------------|-----------------|-----------------|-----------------|
|-----------------|-----------------|-----------------|-----------------|
|-------------5-4-|-----------------|-------------5-4-|-----------------|
|-5-------3---3-2-|-2---------------|-5-------3---3-2-|-2---------------|
|-3-0-0-0-1-0-----|-0-0-0-0-0-0-0-0-|-3-0-0-0-1-0-----|-0-0-0-0-0-0-0-0-|


    PM--|   PM        PM----------|
  E E E E E E E E   E E E E E E E E   Q  Q  H      Q  Q  Q  Q
|-----------------|-----------------|------------|-------------|
|-----------------|-----------------|------------|-------------|
|-----------------|-----------------|------------|-------------|
|-------------5-4-|-----------------|------------|-------7--9--|
|-5-------3---3-2-|-2---------------|-3--2-------|-3--2--5--7--|
|-3-0-0-0-1-0-----|-0-0-0-0-0-0-0-0-|-1--0-------|-1--0--------|


        PM----|
  Q  Q  E E E E   Q  Q  Q  Q    Q  Q  H      Q  Q  Q  Q
|---------------|-------------|------------|-------------|
|---------------|-------------|------------|-------------|
|---------------|-------------|------------|-------------|
|---------------|-------7--9--|------------|-------7--9--|
|-3--2----------|-3--2--5--7--|-3--2-------|-3--2--5--7--|
|-1--0--0-0-0-0-|-1--0--------|-1--0-------|-1--0--------|


  W          W          Q  Q  H      Q  Q  Q  Q
|----------|----------|------------|-------------|
|----------|----------|------------|-------------|
|----------|----------|------------|-------------|
|-5--------|-4--------|------------|-------7--9--|
|-3--------|-2--------|-3--2-------|-3--2--5--7--|
|-3--------|-2--------|-1--0-------|-1--0--------|


        PM----|
  Q  Q  E E E E   Q  Q  Q  Q    Q  Q  H      Q  Q  Q  Q
|---------------|-------------|------------|-------------|
|---------------|-------------|------------|-------------|
|---------------|-------------|------------|-------------|
|---------------|-------7--9--|------------|-------7--9--|
|-3--2----------|-3--2--5--7--|-3--2-------|-3--2--5--7--|
|-1--0--0-0-0-0-|-1--0--------|-1--0-------|-1--0--------|


                        PM------------|       PM|     PM|
  W          W          E E E E E E E E   E E E E E E E E
|----------|----------|-----------------|-----------------|
|----------|----------|-----------------|-----------------|
|----------|----------|-----------------|-----------------|
|-5--------|-4--------|-----------------|-----------------|
|-3--------|-2--------|-----------------|-8-7-----8-7-----|
|-3--------|-2--------|-1-1-1-1-3-3-3-3-|-6-5-5-5-6-5-5-5-|


  PM------------|                   PM------------|       PM|     PM|
  E E E E E E E E   E Q.   E Q.     E E E E E E E E   E E E E E E E E
|-----------------|---------------|-----------------|-----------------|
|-----------------|---------------|-----------------|-----------------|
|-----------------|---------------|-----------------|-----------------|
|-----------------|---------------|-----------------|-----------------|
|-----------------|-8-7----8-7----|-----------------|-8-7-----8-7-----|
|-1-1-1-1-3-3-3-3-|-6-5----6-5----|-1-1-1-1-3-3-3-3-|-6-5-5-5-6-5-5-5-|


  PM------------|
  E E E E E E E E   E Q.   E Q.     Q  Q  +H       Q  Q  Q  Q
|-----------------|---------------|--------------|-------------|
|-----------------|---------------|--------------|-------------|
|-----------------|---------------|--------------|-------------|
|-----------------|---------------|-8--7--(7)----|-8--7--5--7--|
|-----------------|-8-7----8-7----|-6--5--(5)----|-6--5--3--5--|
|-1-1-1-1-3-3-3-3-|-6-5----6-5----|-6--5--(5)----|-6--5--3--5--|


  Q  Q  +H       Q  Q  Q  Q    Q  Q  +H       Q  Q  Q  Q
|--------------|-------------|--------------|-------------|
|--------------|-------------|--------------|-------------|
|--------------|-------------|--------------|-------------|
|-8--7--(7)----|-8--7--5--7--|-8--7--(7)----|-8--7--5--7--|
|-6--5--(5)----|-6--5--3--5--|-6--5--(5)----|-6--5--3--5--|
|-6--5--(5)----|-6--5--3--5--|-6--5--(5)----|-6--5--3--5--|


    W          W          Q  Q  +H       Q  Q  Q  Q
|------------|----------|--------------|-------------|
|------------|----------|--------------|-------------|
|------------|----------|--------------|-------------|
|-/10--------|-9--------|-8--7--(7)----|-8--7--5--7--|
|--/8--------|-7--------|-6--5--(5)----|-6--5--3--5--|
|--/8--------|-7--------|-6--5--(5)----|-6--5--3--5--|


  Q  Q  +H       Q  Q  Q  Q    Q  Q  +H       Q  Q  Q  Q
|--------------|-------------|--------------|-------------|
|--------------|-------------|--------------|-------------|
|--------------|-------------|--------------|-------------|
|-8--7--(7)----|-8--7--5--7--|-8--7--(7)----|-8--7--5--7--|
|-6--5--(5)----|-6--5--3--5--|-6--5--(5)----|-6--5--3--5--|
|-6--5--(5)----|-6--5--3--5--|-6--5--(5)----|-6--5--3--5--|


                                Slower Q=180
                                PM------------------------------|
    W          W                E E E E E E E E   E E E E E E E E   6x
|------------|-----------||-||------------------|-------------------||
|------------|----------o||-||o-----------------|------------------o||
|------------|-----------||-||------------------|-------------------||
|-/10--------|-9---------||-||------------------|-------------------||
|--/8--------|-7--------o||-||o-3-4-5-6-3-4-5-6-|-3-4-5-6-3-4-5-6--o||
|--/8--------|-7---------||-||--0-0-0-0-0-0-0-0-|-0-0-0-0-0-0-0-0---||


      PM--|   PM        PM--|                 PM--------------------|
    E E E E E E E E   E E E E  E Q.    4x     S S S S S S S S S S S S E E
||------------------|------------------||-||-------------------------------|
||o-----------------|-----------------o||-||o------------------------------|
||------------------|---------10-9-----||-||-------------------------------|
||--------------5-4-|------------------||-||-------------------------------|
||o-5-------3---3-2-|-2--------8-7----o||-||o-------------------------3-2--|
||--3-0-0-0-1-0-----|-0-0-0-0----------||-||--3-3-3-3-3-3-3-3-1-1-1-1------|


  1.,2.,3.                    4.
  PM------------|
  S S S S S S S S  E Q.        E Q.    E Q.      E Q.    E Q.
|--------------------------||-----------------|-----------------|
|-------------------------o||-----------------|-----------------|
|-----------------10-9-----||-10-9----10-9----|-10-9----10-9----|
|--------------------------||-----------------|-----------------|
|------------------8-7----o||--8-7-----8-7----|--8-7-----8-7----|
|-0-0-0-0-0-0-0-0----------||-----------------|-----------------|


    Faster Q=234
             PM----------|        PM|
     E E E E E E E E   E E Q  E E E E  3x  W           W
||-------------------|-----------------||-----------|-------|
||o------------------|----------------o||-----------|-------|
||-------------------|-----------------||-----------|-------|
||--10S9-7S9---------|-----9--7S9------||-12--------|-11----|
||o--8S7-5S7---------|-----7--5S7-----o||-10--------|--9----|
||-----------0-0-0-0-|-0-0--------0-0--||-10--------|--9----|


             PM----------|        PM|
     E E E E E E E E   E E Q  E E E E  3x  W           W
||-------------------|-----------------||-----------|-------|
||o------------------|----------------o||-----------|-------|
||-------------------|-----------------||-----------|-------|
||--10S9-7S9---------|-----9--7S9------||-12--------|-11----|
||o--8S7-5S7---------|-----7--5S7-----o||-10--------|--9----|
||-----------0-0-0-0-|-0-0--------0-0--||-10--------|--9----|


                                     PM----|
    Q  Q  H      Q  Q  Q  Q    Q  Q  E E E E   Q  Q  Q  Q
||-------------|-------------|---------------|------------|
||o------------|-------------|---------------|------------|
||-------------|-------------|---------------|------------|
||-------------|-------0--2--|---------------|-------0--2-|
||o-3--2-------|-3--2--0--2--|-3--2----------|-3--2--0--2-|
||--1--0-------|-1--0--------|-1--0--0-0-0-0-|-1--0-------|


  Q  Q  H      Q  Q  Q  Q    W          W     4x
|------------|-------------|----------|-------||
|------------|-------------|----------|------o||
|------------|-------------|----------|-------||
|------------|-------0--2--|-5--------|-4-----||
|-3--2-------|-3--2--0--2--|-3--------|-2----o||
|-1--0-------|-1--0--------|-3--------|-2-----||


    Q  Q  +H       Q  Q  Q  Q    Q  Q  +H       Q  Q  Q  Q
||---------------|-------------|--------------|------------|
||o--------------|-------------|--------------|------------|
||---------------|-------------|--------------|------------|
||--8--7--(7)----|-8--7--5--7--|-8--7--(7)----|-8--7--5--7-|
||o-6--5--(5)----|-6--5--3--5--|-6--5--(5)----|-6--5--3--5-|
||--6--5--(5)----|-6--5--3--5--|-6--5--(5)----|-6--5--3--5-|


  Q  Q  +H       Q  Q  Q  Q      W          W     5x
|--------------|-------------|------------|-------||
|--------------|-------------|------------|------o||
|--------------|-------------|------------|-------||
|-8--7--(7)----|-8--7--5--7--|-/10--------|-9-----||
|-6--5--(5)----|-6--5--3--5--|--/8--------|-7----o||
|-6--5--(5)----|-6--5--3--5--|--/8--------|-7-----||


  W          H..        E    +Q   H.        +W
|----------|--------------|---------------|--------|
|----------|--------------|---------------|--------|
|----------|--------------|---------------|--------|
|-5--------|-7---------10-|-(10)--9-------|-(9)----|
|-3--------|-5----------8-|--(8)--7-------|-(7)----|
|-3--------|-5----------8-|--(8)--7-------|-(7)----|


               Slowly Q=98
  +W           W                  W                    W
|------------|------------------|------------------|--------*|
|------------|------------------|------------------|--------*|
|------------|------------------|------------------|--------*|
|-(9)--------|------------------|------------------|--------*|
|-(7)--------|------------------|------------------|--------*|
|-(7)--------|------------------|------------------|--------*|
|
| Gtr III
|                                                      ~~~
|  W           E E +Q   E E E E   E E +Q   E E E E     W
|------------|------------------|------------------|--------*|
|------------|------------------|------------------|--------*|
|------------|------------------|------------------|--------*|
|------------|------------------|------------------|--------*|
|------------|-8-7-(7)--8-7-5-7-|-8-7-(7)--8-7-5-7-|-/10----*|
|------------|------------------|------------------|--------*|



Duration Legend
---------------
W - whole; H - half; Q - quarter; E - 8th; S - 16th; T - 32nd; X - 64th; a - acciaccatura
+ - note tied to previous; . - note dotted; .. - note double dotted
Uncapitalized letters represent notes that are staccato (1/2 duration)
Irregular groupings are notated above the duration line
Duration letters will always appear directly above the note/fret number it represents the
duration for.  Duration letters with no fret number below them represent rests.  Multi-
bar rests are notated in the form Wxn, where n is the number of bars to rest for.  Low
melody durations appear below the staff

Tablature Legend
----------------
 h   - hammer-on
 p   - pull-off
 b   - bend
 pb  - pre-bend
 r   - bend release (if no number after the r, then release immediately)
 /\  - slide into or out of (from/to "nowhere")
 s   - legato slide
 S   - shift slide
 - natural harmonic
[n]  - artificial harmonic
n(n) - tapped harmonic
 ~   - vibrato
 tr  - trill
 T   - tap
 TP  - trem. picking
 PM  - palm muting
\n/  - tremolo bar dip; n = amount to dip
 \n  - tremolo bar down
 n/  - tremolo bar up
/n\  - tremolo bar inverted dip
 =   - hold bend; also acts as connecting device for hammers/pulls
 <> - volume swell (louder/softer)
 x   - on rhythm slash represents muted slash
 o   - on rhythm slash represents single note slash

Misc Legend
-----------
 |  - bar
||  - double bar
||o - repeat start
o|| - repeat end
*|  - double bar (ending)
 :  - bar (freetime)
 $  - Segno
 &  - Coda
Tempo markers -  = BPM(8/16=s8/s16), where s8 = swing 8ths, s16 = swing 16ths

Добавлено: 04.07.2013
Другие материалы по этой песне:
  • Аккорды и текст

Страница создана 21.04.2012
http://primanota.ru/anthrax/be-all-end-all-chords.htm
Привет, Гость.
Предлагаем пройти революционный курс по гитаре.
Подарок от PrimaNota.Ru, забирай!