PrimaNota.ru - самый крупный в мире бесплатный архив песенных текстов, аккордов, табулатур и нот


Anthrax - Blood - текст песни, таба, видео

Регистрация Запомнить меня
Войти через:  Facebook Google Twitter Vk Yandex Mail.ru

Anthrax - Blood - текст песни, таба, видео

Печатать
Просмотров: 175
Авторы музыки: Charlie Benante, Scott Ian, Dan Spitz, Frank Bello, Joey Belladonna

Anthrax-Blood                         Standard Tuning

Intro

E---------------------------------------------------------------------------|
B---------------------------------------------------------------------------|
G---------------------------------------------------------------------------|
D---------------------------------------------------------------------------|
A-222223--2222223-----222223--2222223-------222223--2222223-------222223----|
E-000001--0000001-1-0-000001--0000001--1-0--000001--0000001--1-0--000001----|

E-----------------------------|
B-----------------------------|
G-----------------------------|
D-----------------------------|
A-2222223--22222222--3--------|
E-0000001--00000000--1--------|

Verse

E--------------|
B--------------|
G--------------| Repeat 4x
D--------------|
A-777-7-65-2---|
E----------0---|

E--------------------------------|
B--------------------------------|
G--------------------------------| Repeat 4x
D--------------------------------|
A-777-66-555-4--333-22-1----2----|
E-------------------------2-0----|

E---------------------|
B---------------------|
G---------------------|
D---------------------|
A------------55--88---|
E-023--023--033--66---|

Pre-Chours

E---------------------------------------------------------------------------|
B---------------------------------------------------------------------------|
G---------------------------------------------------------------------------|
D---------------------------------------------------------------------------|
A-------------------------------------------------------------55-88---------|
E-5676--5676--5676--5676--5676--5676---0232--0232--0232--0232-33-66---------|

Chours

E----------------------------------|
B----------------------------------|
G----------------------------------|
D----------------------------------|
A---7-----555--2---7-----555--2----|
E-0---65--333--0--0--65--333--0----|

E-----------------------|
B-----------------------|
G-----------------------| Repeat 4x
D-----------------------|
A-----------------------|
E-0000-3333-6666-3333---|

E----------------------------------------|
B----------------------------------------|
G----------------------------------------|
D----------------------------------------|
A---777--66--555--4---333--22--1---2-----|
E-0------------------------------2-0-----|

Solo Intro

E--------------------|
B--------------------|
G--------------------|
D--------------------|
A------------8-5-----|
E-0232--0232-6-3-----|

Solo Rthyme

E------------------------------------------|
B------------------------------------------|
G------------------------------------------|
D------------------------------------------|
A--2222-2-2222222-2-2222-2-222222-2--------|
E--0000-0-0000000-0-0000-0-000000-0--------|

E------------------------------------------|
B------------------------------------------|
G------------------------------------------|
D----999-9-87------------------------------|
A----777-7-65------------------------------|
E-0----------------------------------------|

Ontro

E-----------------|
B-----------------|
G-----------------|
D-----------------|
A-----------88----|
E-0232-0232-66----|
Добавлено: 13.06.2013
Другие материалы по этой песне:
  • Аккорды и текст

Страница создана 14.03.2012
http://primanota.ru/anthrax/blood-chords.htm
Привет, Гость.
Предлагаем пройти революционный курс по гитаре.
Подарок от PrimaNota.Ru, забирай!