PrimaNota.ru - самый крупный в мире бесплатный архив песенных текстов, аккордов, табулатур и нот


Annihilator - Hell Bent For Leather - бас-таба, видео

Регистрация Запомнить меня
Войти через:  Facebook Google Twitter Vk Yandex Mail.ru

Annihilator - Hell Bent For Leather - бас-таба, видео

Печатать
Просмотров: 78
Авторы музыки: Glenn Tipton
Авторы текста: Glenn Tipton
As recorded by Annihilator
(From the 1993 Album SET THE WORLD ON FIRE)

Transcribed by Pete (Delirium_Veil)
	

Words and Music by Glenn Tipton
Arranged by Jeff Waters

Gtr I (E A D G) - 'Wayne Darley'

 Intro
  Q=180
  N.C.
 4/4
  Gtr I
  W          W          W          W
|----------|----------|----------|------|
|----------|----------|----------|------|
|----------|----------|----------|------|
|-0--------|-1--------|-2--------|-3----|


  Q  Q  Q  Q    Q  Q  Q  Q    W          W          +W
|-------------|-------------|----------|----------|--------||
|-------------|-------------|----------|----------|--------||
|-------------|-0--0--0--0--|----------|----------|--------||
|-4--4--4--4--|-------------|-1--------|-0--------|-(0)----||


 Intro 2
  Q=188
  W          W          W          H    Q  Q
|----------|----------|----------|------------|
|----------|----------|----------|------------|
|----------|----------|----------|------3--2--|
|----------|----------|----------|------------|


  W          +W           +W           +H     Q  Q
|----------|------------|------------|--------------|
|----------|------------|------------|--------------|
|-0--------|-(0)--------|-(0)--------|-(0)----3--2--|
|----------|------------|------------|--------------|


   Verse
    E E E E E E E E   E E E E E E E E   E E E E E E E E   E E E E Q  Q
||------------------|-----------------|-----------------|-----------------||
||o-----------------|-----------------|-----------------|----------------o||
||o-0-0-0-0-0-0-0-0-|-0-0-0-0-0-0-0-0-|-0-0-0-0-0-0-0-0-|-0-0-0-0-3--2---o||
||------------------|-----------------|-----------------|-----------------||


  E E E E E E E E   E E E E E E E E   E E E E E E E E   E E E E E Q.
|-----------------|-----------------|-----------------|----------------|
|-----------------|-----------------|-----------------|----------------|
|-5-5-5-5-5-5-5-5-|-5-5-5-5-5-5-5-5-|-5-5-5-5-5-5-5-5-|-5-3-0-3---3----|
|-----------------|-----------------|-----------------|----------------|


  E E E E E E E E   E E E E E E E E   E E E E E E E E   E E E E +Q.    E
|-----------------|-----------------|-----------------|------------------|
|-----------------|-----------------|---------1-----2-|---5-5-5-(5)\-----|
|-5-5-5-5-5-5-5-5-|-5-5-5-5-5-5-5-5-|-5-5-3-0---4-1---|----------------0-|
|-----------------|-----------------|-----------------|------------------|


   Chorus
    +E  E E E E E E E   E E E E E E E E
||--------------------|-----------------|
||o-------------------|-----------------|
||o-(0)-0-0-0-0-0-0-0-|-0-0-0-0-0-0-0---|
||--------------------|---------------3-|


  +E  E E E +E  E E E   +E  E E E +E  E E E
|-----------------0---|-----------------------||
|-------0-------2-----|-------0-------0------o||
|-----2---3-(3)-------|-----0-----------2-0--o||
|-(3)---------------1-|-(1)-----3-(3)---------||


 Verse 2
  +E  E E E E E E E   E E E E E E E E   E E E E E E E E   E E E E Q  Q
|-------------------|-----------------|-----------------|---------------|
|-------------------|-----------------|-----------------|---------------|
|-(0)-0-0-0-0-0-0-0-|-0-0-0-0-0-0-0-0-|-0-0-0-0-0-0-0-0-|-0-0-0-0-3--2--|
|-------------------|-----------------|-----------------|---------------|


  E E E E E E E E   E E E E E E E E   E E E E E E E E   E E E E Q  Q
|-----------------|-----------------|-----------------|---------------|
|-----------------|-----------------|-----------------|---------------|
|-0-0-0-0-0-0-0-0-|-0-0-0-0-0-0-0-0-|-0-0-0-0-0-0-0-0-|-0-0-0-0-3--2--|
|-----------------|-----------------|-----------------|---------------|


  E E E E E E E E   E E E E E E E E   E E E E E E E E   E E E E E Q.
|-----------------|-----------------|-----------------|----------------|
|-----------------|-----------------|-----------------|----------------|
|-5-5-5-5-5-5-5-5-|-5-5-5-5-5-5-5-5-|-5-5-5-5-5-5-5-5-|-5-3-0-3---3----|
|-----------------|-----------------|-----------------|----------------|


  E E E E E E E E   E E E E E E E E   E E E E E E E E   E E E E +Q.    E
|-----------------|-----------------|-----------------|------------------|
|-----------------|-----------------|---------1-----2-|---5-5-5-(5)\-----|
|-5-5-5-5-5-5-5-5-|-5-5-5-5-5-5-5-5-|-5-5-3-0---4-1---|----------------0-|
|-----------------|-----------------|-----------------|------------------|


 Chorus 2
  +E  E E E E E E E   E E E E E E E E
|-------------------|-----------------|
|-------------------|-----------------|
|-(0)-0-0-0-0-0-0-0-|-0-0-0-0-0-0-0---|
|-------------------|---------------3-|


  +E  E E E +E  E E E   +E  E E E +E  E E E
|-----------------0---|---------------------|
|-------0-------2-----|-------0-------0-----|
|-----2---3-(3)-------|-----0-----------2-0-|
|-(3)---------------1-|-(1)-----3-(3)-------|


  +E  E E E E E E E   E E E E E E E E
|-------------------|-----------------|
|-------------------|-----------------|
|-(0)-0-0-0-0-0-0-0-|-0-0-0-0-0-0-0---|
|-------------------|---------------3-|


  +E  E E E +E  E E E   +E  E E E +E  E E E
|-----------------0---|---------------------|
|-------0-------2-----|-------0-------0-----|
|-----2---3-(3)-------|-----0-----------2---|
|-(3)---------------1-|-(1)-----3-(3)-----0-|


 Bridge
  +W           W          W          W
|------------|----------|----------|------|
|------------|----------|----------|------|
|------------|----------|----------|------|
|-(0)--------|-1--------|-2--------|-3----|


  W          W          W          W          W
|----------|----------|----------|----------|------||
|----------|----------|----------|----------|-2----||
|----------|-0--------|----------|----------|------||
|-4--------|----------|-1--------|-0--------|------||


 Solo - Neil Goldbreg
  E E Q  E E Q    E E Q  E E Q    E E Q  E E Q    E E Q  E E Q
|---------------|---------------|---------------|---------------|
|---------------|---------------|-2-2-2--2-2-2--|-2-2-2--2-2-2--|
|-0-0-0--0-0-0--|-0-0-0--0-0-0--|---------------|---------------|
|---------------|---------------|---------------|---------------|


  E E Q  E E Q    E E Q  E E Q    E E Q  E E Q    E E Q  E E Q
|---------------|---------------|---------------|---------------|
|---------------|---------------|---------------|---------------|
|---------------|---------------|-5-5-5--5-5-5--|-5-5-5--5-5-5--|
|-3-3-3--3-3-3--|-3-3-3--3-3-3--|---------------|---------------|


 Solo - Jeff Waters
  Q  E E E E E E   +E  E E E E E E E   +E  E E E E E E E   +E  E E E E E E E
|----------------|-------------------|-------------------|-------------------|
|----------------|-------------------|-------------------|-------------------|
|-0--0-0-0-0-0-0-|-(0)-0-0-0-0-0-0-0-|-(0)-0-0-0-0-0-0-0-|-(0)-0-0-0-0-0-0-0-|
|----------------|-------------------|-------------------|-------------------|


  +E  E E E E E E E   +E  E E E E E E E
|-------------------|-------------------|
|-------------------|-------------------|
|-(0)-0-0-0-0-0-0-0-|-(0)-0-0-0-0-0-0-0-|
|-------------------|-------------------|


  +E  E E E E E E E   +E  E E E E E Q
|-------------------|------------------||
|-------------------|------------------||
|-(0)-0-0-0-0-0-0-0-|-(0)-0-0-0-0-0-0--||
|-------------------|------------------||


  W          W          W          W
|----------|----------|----------|------|
|----------|----------|----------|------|
|----------|----------|----------|------|
|-0--------|-1--------|-2--------|-3----|


  W          W          W          W
|----------|----------|----------|------|
|----------|----------|----------|------|
|----------|-0--------|----------|------|
|-4--------|----------|-1--------|-0----|


  W          W          W
|----------|----------|------||
|-2--------|----------|------||
|----------|----------|------||
|----------|----------|------||


 Chorus - Outro
  E E E E E E E E   E E E E E E E E
|-----------------|-----------------|
|-----------------|-----------------|
|-0-0-0-0-0-0-0-0-|-0-0-0-0-0-0-0---|
|-----------------|---------------3-|


  +E  E E E +E  E E E   +E  E E E +E  E E E
|-----------------0---|---------------------|
|-------0-------2-----|-------0-------0-----|
|-----2---3-(3)-------|-----0-----------2-0-|
|-(3)---------------1-|-(1)-----3-(3)-------|


    +E  E E E E E E E   E E E E E E E E
||--------------------|-----------------|
||o-------------------|-----------------|
||o-(0)-0-0-0-0-0-0-0-|-0-0-0-0-0-0-0---|
||--------------------|---------------3-|


  +E  E E E +E  E E E   +E  E E E +E  E E E
|-----------------0---|-----------------------||
|-------0-------2-----|-------0-------0------o||
|-----2---3-(3)-------|-----0-----------2-0--o||
|-(3)---------------1-|-(1)-----3-(3)---------||


  +E  E E E E E E E   E E E E E E E E
|-------------------|-----------------|
|-------------------|-----------------|
|-(0)-0-0-0-0-0-0-0-|-0-0-0-0-0-0-0---|
|-------------------|---------------3-|


  +E  E E E +E  E E E   +E  E E E +E  E E E
|-----------------0---|---------------------|
|-------0-------2-----|-------0-------0-----|
|-----2---3-(3)-------|-----0-----------2---|
|-(3)---------------1-|-(1)-----3-(3)-----0-|


  +E  E E E +E  E E E   +E  E E E +E  E E E   Q.   E +H       +W
|---------------------|---------------------|---------------|--------*|
|-----2-0-------------|---------0-(0)-------|---------------|--------*|
|---------3-(3)-3---3-|-(3)-2-3-------0---0-|------0-(0)----|-(0)----*|
|-(0)-------------3---|-----------------3---|---------------|--------*|



Duration Legend
---------------
W - whole; H - half; Q - quarter; E - 8th; S - 16th; T - 32nd; X - 64th; a - acciaccatura
+ - note tied to previous; . - note dotted; .. - note double dotted
Uncapitalized letters represent notes that are staccato (1/2 duration)
Irregular groupings are notated above the duration line
Duration letters will always appear directly above the note/fret number it represents the
duration for.  Duration letters with no fret number below them represent rests.  Multi-
bar rests are notated in the form Wxn, where n is the number of bars to rest for.  Low
melody durations appear below the staff

Tablature Legend
----------------
 h   - hammer-on
 p   - pull-off
 b   - bend
 pb  - pre-bend
 r   - bend release (if no number after the r, then release immediately)
 /\  - slide into or out of (from/to "nowhere")
 s   - legato slide
 S   - shift slide
 - natural harmonic
[n]  - artificial harmonic
n(n) - tapped harmonic
 ~   - vibrato
 tr  - trill
 T   - tap
 TP  - trem. picking
 PM  - palm muting
\n/  - tremolo bar dip; n = amount to dip
 \n  - tremolo bar down
 n/  - tremolo bar up
/n\  - tremolo bar inverted dip
 =   - hold bend; also acts as connecting device for hammers/pulls
 <> - volume swell (louder/softer)
 x   - on rhythm slash represents muted slash
 o   - on rhythm slash represents single note slash

Misc Legend
-----------
 |  - bar
||  - double bar
||o - repeat start
o|| - repeat end
*|  - double bar (ending)
 :  - bar (freetime)
 $  - Segno
 &  - Coda
Tempo markers -  = BPM(8/16=s8/s16), where s8 = swing 8ths, s16 = swing 16ths

Добавлено: 24.10.2013
Вам также может быть интересно:
Другие материалы по этой песне:

Страница создана 24.10.2013
http://primanota.ru/annihilator/hell-bent-for-leather-chords.htm
Привет, Гость.
Предлагаем пройти революционный курс по гитаре.
Подарок от PrimaNota.Ru, забирай!